tablatura akordi besedilo   Neznano (tab)

trzalica.com besedilo akordi tablature

Legenda ikon:


Pogoji uporabe.    

besedilo z akordi besedilo z akordi
tablature tablatura (tabulatura)
tablature tablatura za bas
tablature videolekcija

GuitarPro GutarPro (GP)
note Note (v PDF formatu)
sibelius Sibelius (SIB), itd.
..

Vse verzije te pesmi:      Neznano (tab)       Neznano (gp/bas)

trzalica bar

 _______________________________________________________
|                                                       |
| IZVAJALEC: ................................ Siddharta |
| PESEM: .................................... Neznano   |
| ALBUM: .................................... Petrolea  |
| LETO IZIDA: ............................... 2006      |
|_______________________________________________________|
|                                                       |
|  Avtor transkripcije: AliAs                           |
|  Domača stran transkripcije: Trzalica.com             |
|  Datum nastanka transkripcije: 27.9.2006              |
|_______________________________________________________|
 
        OPOMBE:
        30.10.2006 - V tabulaturi za solo je manjkal en ton zaradi tipkarske napake - popravljeno.
 
================================================================================================
 
LEGENDA ZNAKOV:
/ = slide up
\ = slide down
b = bend up za 1/2 tona
f = bend up za cel ton
r = release bend
 
Prijemi akordov:
Am - 0 0 2 2 1 0
Cm - X 3 5 5 4 3
Dm - X 0 0 2 3 1
D# - 6 6 8 8 8 6
F  - 1 3 3 2 1 1
G  - 3 5 5 4 3 3
Gm - 3 5 5 3 3 3
G# - 4 6 6 5 4 4
 
================================================================================================
 
INTRO:
 
        Dim nad belo rjuho se vali
        Kje so bistra tla da bi z njih pili zrak
        Vse kar vidijo oči zla podoba je v temi
        Divjaki se bojijo ujeti vile sna
 
REFREN 1:
      D#
        Neznana moč objesta 
      Gm
        Neznano jim daje strah
      Cm
        Ko ubija se hudiče
      F
        trepeta roka in glas
      Cm
        Prebujajo se volkovi 
      Gm
        Prebuja se divja sla
      F                          Gm
        Ne rabim obljub samo iskren obraz
 
VERZ 1:
 
        Mast urbano zlo brez bolečin zaboli
        Kot se mit nevedočim ukrivi
        Malo senco riše zmaj ko zenit je Sonca kraj
        Tisto ni vampir v svojo dlan sem ujel sveče sij
 
REFREN 2:
 
      D#
        Neznana moč objesta 
      Gm
        Neznano jim daje strah
      Cm
        Ko ubija se hudiče
      F
        trepeta roka in glas
      Cm
        Prebujajo se volkovi 
      Gm
        Prebuja se divja sla
      F                          D#
        Ne rabim obljub samo iskren obraz
 
SOLO:
        Gm  Cm  F  Cm  Gm  F
 
(z delayem in distorzijo)
e|---------------------13--15--17-17br--17b---------13/15\13------|
B|-13--15--16-16-16br-----------------------18--15------------16--|
G|----------------------------------------------------------------|
D|----------------------------------------------------------------|
A|----------------------------------------------------------------|
E|----------------------------------------------------------------|
 
e|------------------------------------13f-r---15-16-16b-\-|
B|---------------------13f-r--15--16----------------------|
G|-15--14--12--14--15-------------------------------------|
D|--------------------------------------------------------|
A|--------------------------------------------------------|
E|--------------------------------------------------------|
 
e|-17-17-17-17-17b-13----15\13---------------------------------13f-r---| 
B|--------------------15-------15----------------15b-r--13-15----------|  
G|--------------------------------15-12--14--15------------------------|   
D|---------------------------------------------------------------------|    
A|---------------------------------------------------------------------|
E|---------------------------------------------------------------------|
 
e|-----------------------------------------------------------| 
B|-15-------13/15-13----13/15-13----13/15-13----13/15-13-----|  
G|-----15------------15----------15----------15----------15--|   
D|-----------------------------------------------------------|    
A|-----------------------------------------------------------|
E|-----------------------------------------------------------|
 
 
      Cm                        Gm
        Ne vidi se dna ne upa skočit v vodo
      Dm                         Am
        Ne vidi se dna boji se plavati ne zna 
      Cm
        Naj vara nas to 
                 G#                      D#  G
        Neznano daje tudi čar - neviden daaaaaar 
 
REFREN 3:
        Neznana moč objesta 
        Neznano jim daje strah
      Dm                  G
        Ko ubija se hudiče
                           Dm
        trepeta roka in glas
                            Am
        Prebujajo se volkovi 
                            G
        Prebuja se divja sla
                                 F
        Ne rabim obljub samo iskren obraz
 
        F  Am  Dm  G
 
      Dm                    Am
        Prebujajo se volkovi 
                            G
        Prebuja se divja sla
                                 F
        Ne rabim obljub samo iskren obraz
               (Am)
        le iskren obraz
 


trzalica bartrzalica bar

Dodaj komentar


Varnostna koda
Osveži

  Iskanje

config