tablatura akordi besedilo   Noraterra (tab)

trzalica.com besedilo akordi tablature

Legenda ikon:


Pogoji uporabe.    

besedilo z akordi besedilo z akordi
tablature tablatura (tabulatura)
tablature tablatura za bas
tablature videolekcija

GuitarPro GutarPro (GP)
note Note (v PDF formatu)
sibelius Sibelius (SIB), itd.
..

   ___________________________________________________________
  |  _______________________________________________________  |
  | |                                                       | |
  | | IZVAJALEC: .............. Siddharta                   | |
  | | PESEM: .................. Noraterra                   | |
  | | LETO IZIDA: ............. 2011                        | |
  | | DOMAČA STRAN: ........... www.siddharta.net           | |
  | |_______________________________________________________| |
  | |                                                       | |
  | |           Avtor transkripcije: AliAs                  | |
  | |    Domača stran transkripcije: Trzalica.com           | |
  | |  Datum nastanka transkripcije: 12.4.2011              | |
  | |_______________________________________________________| |
  |___________________________________________________________|
 
================================================================================================
 
PRIJEMI AKORDOV:
 
D   - X 5 7 7 7 X
E   - X 7 9 9 9 X
F#m - 2 4 4 2 2 2
Hm  - X 2 4 4 3 X
 
================================================================================================
www.trzalica.com    www.trzalica.com    www.trzalica.com    www.trzalica.com    www.trzalica.com
================================================================================================
 
 
UVOD & VERZ:
 
   F#m (2x)                   Hm                         D
e|--------------------------|--------------------------|--------------------------|
B|--------------------------|--------------------------|--------------------------|
G|--------------------------|--------------------------|--------------------------|
D|--------------------------|--------------------------|--------------------------|
A|--------------------------|--------------------------|--------------------------|
E|-0-2--5-2---0-2-5-2-0-2---|-0-2--5-2---0-2-5-2-0-2---|-0-2--5-2---0-2-5-2-0-2-\-|
 
     F#m
        Ko bodo izginile ceste
                               Hm    D
        In ko prerasel vse bo gozd
     F#m
        Spet bomo gledali zvezde
                                  Hm      D
        Spet bomo zunaj prespali noč, to noč
        Kot je bilo nekoč
 
   F#m (2x)                    Hm                          D
e|---------------------------|---------------------------|---------------------------|
B|---------------------------|---------------------------|---------------------------|
G|---------------------------|---------------------------|---------------------------|
D|-777/9-99977----667-6-7----|-777/9-99977----779-7-9----|-777/9-99977----779-7-9----|
A|---------------------------|---------------------------|---------------------------|
E|---------------------------|---------------------------|---------------------------| \
                                                                                        \_ dušenje z
   F#m (2x)                    Hm                          D                            /   dlanjo
e|---------------------------|---------------------------|---------------------------| /
B|---------------------------|---------------------------|---------------------------|
G|---------------------------|---------------------------|---------------------------|
D|-777/9-99977----667-6-7----|-444/6-66644----224-2-4----|-444/6-66644------4-6-7----|
A|---------------------------|---------------------------|----------------77---------|
E|---------------------------|---------------------------|---------------------------|
 
 
 
REFREN:
 
      D
        Šele zdaj vem
                                                      F#m
        Pozabili v vsej tej norosti ste na sanje iz mladih let
      D
        Šele zdaj vem
                                                 E
        Da se zaradi vaše norosti nam ostalim podira svet
 
e|---------------------------------|----------------------------------------------------------------|
B|---------------------------------|----------------------------------------------------------------|
G|---------------------------------|----------------------------------------------------------------|
D|---------------------------------|-------6-------------6-----------------6------------------------|
A|---------------------------------|-5-7-7---7-7-7-7-5-7---7-5-7-7-7-5-7-7---7-7-7-7----------------|
E|-0-2-2-5-2-2-2-2-0-2-5-2-0-2-2-2-|-------------------------------------------------0-2-5-2-0-2----|
 
 
VERZ:
 
e|-------|---------------------------------|
B|-------|---------------------------------|
G|-667---|-6-77-6-7-6-44-----44---4--------| -- dušenje z
D|-------|---------------7-7----7---7-66-4-|     dlanjo
A|-------|---------------------------------|
E|-------|---------------------------------|
 
Druga kitara:
e|---------------------------------|--------------------------------------|
B|---------------------------------|--------------------------------------|
G|---------------------------------|--------------------------------------| -- dušenje z
D|---------------------------------|--------------------------------------|     dlanjo
A|-4-55-4-5-4-22-0-0-22-0-2-0------|-4-55-4-5-4-22-0-0-22-0-2-0-22-2-4----|
E|----------------------------44-2-|--------------------------------------|
 
 
     F#m
        Modrino hladnega sonca
                              Hm   D
        Rumeno morje prevzelo bo
     F#m
        Ker ni več daleč do konca
                                 Hm      D
        Je bolje, da spremenimo pot, to pot
        Kot je bilo nekoč
 
 
REFREN & ZAKLJUČEK:
 
      D
        Šele zdaj sem
                                                          F#m
        Sam opazil, da nimamo več zgodb, ki bi v nas porodile smeh
      D
        Šele zdaj vem
                                                 E
        Da se zaradi vaše norosti nam ostalim podira svet
 
        D  F#m  D  E
 
   D                                 F#m
e|---------------------------------|---------------------------------|
B|---------------------------------|---------------------------------|
G|---------------------------------|---------------------------------|
D|-------4-------------4-----------|---------------------------------|
A|-4-5-5---5-5-5-5-4-5---5-4-5-5-5-|---------------------------------|
E|---------------------------------|-0-2-2-5-2-2-2-2-0-2-5-2-0-2-2-2-|
 
   D                                 E
e|---------------------------------|---------------------------------|
B|---------------------------------|---------------------------------|
G|---------------------------------|---------------------------------|
D|-------4-------------4-----------|-------6-------------6-----------|
A|-4-5-5---5-5-5-5-4-5---5-4-5-5-5-|-5-7-7---7-7-7-7-5-7---7-5-7-7-7-|
E|---------------------------------|---------------------------------|
 
   D                                 F#m
e|---------------------------------|---------------------------------|
B|---------------------------------|---------------------------------|
G|---------------------------------|---------------------------------|
D|-------4-------------4-----------|---------------------------------|
A|-4-5-5---5-5-5-5-4-5---5-4-5-5-5-|---------------------------------|
E|---------------------------------|-0-2-2-2-2-2-2-2-2-2-2-2-2-2-2-2-|
 
   D                                 E
e|---------------------------------|---------------------------------|
B|---------------------------------|---------------------------------|
G|---------------------------------|---------------------------------|
D|-------4-------------4-----------|-------6-------------6-----------|
A|-4-5-5---5-5-5-5-4-5---5-4-5-5-5-|-5-7-7---7-7-7-7-5-7---7-5-7-7-7-|
E|---------------------------------|---------------------------------|
 
 
e|---------------------------------|
B|---------------------------------|
G|---------------------------------|
D|---------------------------------|
A|-4-55-4-5-4-22-0-0-22-0-2-0------|
E|----------------------------44-2-|
 
Druga kitara:
e|---------------------------------|
B|---------------------------------|
G|---------------------------------|
D|-2-44-2-4-2-00-------------------|
A|---------------4-4-55-4-5-4-22-0-|
E|---------------------------------|
 

trzalica bartrzalica bar

Dodaj komentar


Varnostna koda
Osveži

  Iskanje

config