tablatura akordi besedilo   Opice (tab)

trzalica.com besedilo akordi tablature

Legenda ikon:


Pogoji uporabe.    

besedilo z akordi besedilo z akordi
tablature tablatura (tabulatura)
tablature tablatura za bas
tablature videolekcija

GuitarPro GutarPro (GP)
note Note (v PDF formatu)
sibelius Sibelius (SIB), itd.
..

 _______________________________________
|                                       |
| IZVAJALEC: ................ Siddharta |
| PESEM: ........................ Opice |
| ALBUM: ......................... Nord |
|_______________________________________|
|                                       |
|   Transkripcija: AliAs                |
|   Domača stran: Trzalica.com          |
|_______________________________________|
 
================================================================================================
 
LEGENDA:
        M = MUTE
        × = palm muted
        / = slide up
        \ = slide down
        ~ = let ring
 
================================================================================================
www.trzalica.com    www.trzalica.com    www.trzalica.com    www.trzalica.com    www.trzalica.com
================================================================================================
 
 
INTRO:  (00:24 - 00:58)
 
(00:24 - 00:34)
e|--------------------------------------------------------------|
B|---8-8----------8-8----10-10----8-8---------------------------|
G|---9-9----11----9-9----11-11----9-9----11-----9--9--------11--|
D|----------12---------------------------12----10-10-----12-----|
A|-7------9-----7------9--------7------9------------------------|
E|-------------------------------------------8--------10--------|
 
(00:35 - 00:58)
e|------------------------------------------------------------------------------------|
B|------------------------------------------------------------------------------------|
G|------------------------------------------------------------------------------------|
D|-2-2--2-2--2-2--------------2-2--2-2--2--7----2-2--2-2--2-2-------------------------|
A|-2-2--2-2--2-2---------2----2-2--2-2--2--7----2-2--2-2--2-2---------2---------3-2---|
E|-0-0--0-0--0-0---0-2-3---3--0-0--0-0--0--5----0-0--0-0--0-0---0-2-3---3-2-5-2-------|
      M    M                     M                 M    M
 
e|----------------------------------------------------------------------------------------|
B|----------------------------------------------------------------------------------------|
G|----------------------------------------------------------------------------------------|
D|-2-2--2-2--2-2--------------2-2--2-2--2--7----2-2--2-2--2-2-----------------------------|
A|-2-2--2-2--2-2---------2----2-2--2-2--2--7----2-2--2-2--2-2---------2---------3-2-------|
E|-0-0--0-0--0-0---0-2-3---3--0-0--0-0--0--5----0-0--0-0--0-0---0-2-3---3-2-5-2-----2-5-2-|
      M    M                     M                 M    M
 
e|---------------------------------|
B|---------------------------------|
G|---------------------------------|
D|-------------------7--5--7--2----|
A|-3-2---2-1---2-1-0-5--5--7--2----|
E|-------------------5--3--5--0----|
      M     M                    M
 
 
VERZ 1:  (00:59 - 01:23)
 
        Je kri tisto kar spira greh ljudi?
        Je blat tisto kar jemo mi vsi?
        Je vonj vrtnice kriv, da ne smrdi?
        Le grob poln teh lepih je rastlin.
 
                        Je kri...                ...Je blat...
e|-15\\\------------------------------------------------------------------------------|
B|------------------------------------------------------------------------------------|
G|--------------------------4---4--/5-------------------4---4--/5---------------------|
D|--------2-0-2-0-2----2----------------2-0-2-0-2--2----------------2-0-2-0-2-4-5--2--|
A|---------------------2------2---2/3--------------2------2---2/3------------------2--|
E|---------------------0---------------------------0-------------------------------0--|
          ×××××××××      M            M ×××××××××    M            M ×××××××××        M
 
Je vonj...               ...Le grob...
e|--------------------------------------------------------|
B|--------------------------------------------------------|
G|--4---4--/5-------------------4---4--/5-----------------|
D|--------------2-0-2-0-2--2----------------2-0-2-0-2-0-0-|
A|----2---2/3--------------2------2---2/3-------------0-0-|
E|-------------------------0------------------------------|
              M ×××××××××    M            M           ×××
 
 
REFREN 1:  (01:23 - 01:38)
 
         C          B        Em
        Divja sla v opicah ždi,
               C         B         Em
        ki jo padanje teles nahrani.
 
   C         B         Em
e|---------------------------------------------------|
B|---------------------------------------------------|
G|---------------------------------------------------|
D|-5--5---5--4--4---4--2--2-2-2-2-----2--2-2-2-2-----|
A|-3--3---3--2--2---2--2--2-2-2-2-2-2-2--2-2-2-2-2-2-|
E|-3--3---3--2--2---2--0--0-0-0-0-0-0-0--0-0-0-0-0-0-|
         M         M              ×××            ×××
 
   C         B         Em
e|---------------------------------------------------------|
B|---------------------------------------------------------|
G|---------------------------------------------------------|
D|-5--5---5--4--4---4---------------------------------2----|
A|-3--3---3--2--2---2--7--7-5-5-3-3--2-2--2-0-0-------2----|
E|-3--3---3--2--2---2---------------------------3-3-0-0----|
         M         M                                     M
 
 
VERZ 2:  (01:40 - 02:03)
 
        Brez nas opice grizl bi še psi.
        Brez nas hrane ni, opica trpi.
        Zato dejmo svoj delež med ljudi,
        zato pustmo, da zver za zmer zaspi.
 
                      Brez nas opice...        ...Brez nas hrane...
e|-15\\\------------------------------------------------------------------------------|
B|------------------------------------------------------------------------------------|
G|--------------------------4---4--/5-------------------4---4--/5---------------------|
D|--------2-0-2-0-2----2----------------2-0-2-0-2--2----------------2-0-2-0-2-4-5--2--|
A|---------------------2------2---2/3--------------2------2---2/3------------------2--|
E|---------------------0---------------------------0-------------------------------0--|
          ×××××××××      M            M ×××××××××    M            M ×××××××××        M
 
Zato dejmo...            ...zato pustmo...
e|--------------------------------------------------------|
B|--------------------------------------------------------|
G|--4---4--/5-------------------4---4--/5-----------------|
D|--------------2-0-2-0-2--2----------------2-0-2-0-2-0-0-|
A|----2---2/3--------------2------2---2/3-------------0-0-|
E|-------------------------0------------------------------|
              M ×××××××××    M            M           ×××
 
 
REFREN 2:  (02:03 - 02:32)
 
         C          B        Em  ------\
        Divja sla v opicah ždi,         \
               C         B         Em    |--2X
        ki jo padanje teles nahrani. ---/
 
   C         B         Em
e|---------------------------------------------------|
B|---------------------------------------------------|
G|---------------------------------------------------|
D|-5--5---5--4--4---4--2--2-2-2-2-----2--2-2-2-2-----|
A|-3--3---3--2--2---2--2--2-2-2-2-2-2-2--2-2-2-2-2-2-|
E|-3--3---3--2--2---2--0--0-0-0-0-0-0-0--0-0-0-0-0-0-|
         M         M              ×××            ×××
 
   C         B         Em
e|----------------------------------------------------|
B|----------------------------------------------------|
G|----------------------------------------------------|
D|-5--5---5--4--4---4---------------------------------|
A|-3--3---3--2--2---2--7--7-5-5-3-3--2-2--2-0-0-------|
E|-3--3---3--2--2---2---------------------------3-3-0-|
         M         M
 
   C         B         Em
e|---------------------------------------------------|
B|---------------------------------------------------|
G|---------------------------------------------------|
D|-5--5---5--4--4---4--2--2-2-2-2-----2--2-2-2-2-----|
A|-3--3---3--2--2---2--2--2-2-2-2-2-2-2--2-2-2-2-2-2-|
E|-3--3---3--2--2---2--0--0-0-0-0-0-0-0--0-0-0-0-0-0-|
         M         M              ×××            ×××
 
   C         B         Em
e|-----------------------------------------------------|
B|-----------------------------------------------------|
G|-------------------------------------------7-7-8-9\\-|
D|-5--5---5--4--4---4---------------7-8--9-9-----------|
A|-3--3---3--2--2---2--7--7-8-8-9-9--------------------|
E|-3--3---3--2--2---2----------------------------------|
         M         M
 
 
SOLO:  (02:04 - 03:00)
 
e|------------------------------------------------------------------------------------
B|--------------------------------------------------------------------------------- še ni dokončano...
G|-------------------------------------------------------12-11----------------------
D|----------------------------------------------12-13-14-------9/12----------------
A|-5-6-7----5-6-7---9---9-10---10-12-----------------------------------------------
E|---------------0-----0------0-------10-11-12-------------------------------------
         M                                      ××××××××
 
  Drugi kitarist (Primož) igra akorde ob:
        02:49 = Em
        02:51 = Am
        02:54 = D
        02:57 = Em
 
 (02:57 - 03:00)
e|---------------------------------|
B|---------------------------------|
G|---------------------------------|
D|---------------------12-13-14-\\-|
A|-----------12-13-14--------------|
E|-10-11-12------------------------|
 
 
OUTRO: (03:15 - 03:22)
e|-------------------------------------------------------------------|
B|-------------------------------------------------------------------|
G|---------------------------------------------14-15-15----19-20-21--|
D|--------------7-8--9-9-12-12-13-14--14-15-15-----------------------|
A|-7--7-8-8-9-9------------------------------------------------------|
E|-------------------------------------------------------------------|
 

trzalica posnetek bar

trzalica bar
 

Dodaj komentar


Varnostna koda
Osveži

  Iskanje

config