tablatura akordi besedilo   Plastika (tab)

trzalica.com besedilo akordi tablature

Legenda ikon:


Pogoji uporabe.    

besedilo z akordi besedilo z akordi
tablature tablatura (tabulatura)
tablature tablatura za bas
tablature videolekcija

GuitarPro GutarPro (GP)
note Note (v PDF formatu)
sibelius Sibelius (SIB), itd.
..

 _______________________________________
|                                       |
| IZVAJALEC: ................ Siddharta |
| PESEM: ..................... Plastika |
| ALBUM: ..................... Petrolea |
|_______________________________________|
|                                       |
|   Transkripcija: AliAs                |
|   Domača stran: Trzalica.com          |
|_______________________________________|
 
Nastanek transkripcije: 05.06.2006
 
LEGENDA ZNAKOV:
M = MUTE
× = palm muted
X = Muffled
~ = let ring
()= tone v oklepajih ni nujno udariti
p = pull off
h = hammer on
/ = slide up
\ = slide down
 
PRIJEMI AKORDOV ZA REFREN:
(hitro strumanje navzdol)
 
Am - X 7 7 9 10 8
Dm - X 5 7 7 6 5
Em - X 7 9 9 8 7
F  - X 8 10 10 10 8
 
================================================================================================
 
INTRO:
 
e|----------------------------------------------------------------------------------|
B|----------------------------------------------------------------------------------|
G|--------------10------------------9-------------------12------------------14------|
D|-2-2-2-2-2----10-----2-2-2-2-2----10-----2-2-2-2-2----12-----2-2-2-2-2----14------|
A|-0-0-2-2-0----0------0-0-2-2-0----0------0-0-2-2-0----0------0-0-2-2-0----0-------|
E|-----0-0-----------------0-0-----------------0-0-----------------0-0--------------|
             M                   M                   M                   M
 
 
VERZ 1:
 
      A               E           D
        Samozvan mini bog polira geste, vadi slog.
      A                  E           D
        No spontan za humor a delno tog
      A                 E              D
        Nekaterim, nekaterim proda nasvet za lep izgled.
      A         E           D
        Masterotip gleda te.
 
 
e|-----------------------------------------------------------|
B|-----------------------------------------------------------| _
G|-----------------------------------------------------------|  \
D|-----------------------------0-7-7-0-7---------------------|   \
A|------------------------------------------5---5------------|    \
E|-5-5-0-0-5----7---0-0---0-----------------------0-2-3-5----|     \
             M    M     M   M            M    M                     \__ 2x
                                                                    /
e|-----------------------------------------------------------|     /
B|-----------------------------------------------------------|    /
G|-----------------------------------------------------------|   /
D|-----------------------------0-7-7-0-7---------------------| _/
A|----------------------------------------------5-5-4-4------|
E|-5-5-0-0-5----7---0-0---0-----------------5-----------5----|
             M    M     M   M            M    M
 
Druga kitara (Nekaterim, nekaterim...):
   A             E                D
e|----9-9-9-9----7-7--7-7-7-7-----5-5-5-5---5--5--5----|
B|----10101010---9-9--9-9-9-9-----7-7-7-7---7--7--7----|
G|----9-9-9-9----9-9--9-9-9-9-----7-7-7-7---7--7--7----|
D|-----------------------------------------------------|
A|-----------------------------------------------------|
E|-----------------------------------------------------|
              M     M        M            M  M  M  M
 
   A             E           D
e|----9-9-9-9----7--7-7-7-7--5-5-X-X-5--5--5-5-5-5-5-5-|
B|----10101010---9--9-9-9-9--7-7-X-X-7--7--7-7-7-7-7-7-|
G|----9-9-9-9----9--9-9-9-9--7-7-X-X-7--7--7-7-7-7-7-7-|
D|-----------------------------------------------------|
A|-----------------------------------------------------|
E|-----------------------------------------------------|
              M   M                   M  M
 
 
Prehod (slide-ov, ki so na koncu, ni potrebno zaigrati):
 
      A             E               D
        A dela dih, a dela gen za ples fatal?
      A                  E              D
        A zgleda to kar delajo, čista plastika?
 
 
e|----------------------------------------------------------|
B|----------------------------------------------------------|
G|--------------------------------11----9----7---7---7h9-//-|
D|---14----11----9----6---6h7---0-----0----0---0---0--------|
A|-0-----0-----0----0---0-----------------------------------|
E|----------------------------------------------------------|
 
e|------------------------------------------------------------|
B|------------------------------------------------------------|
G|--------------------------------11---13---14---14--14-14-\\-|
D|---14----11----9----6---6h7---0----0----0-------------------|
A|-0-----0-----0----0---0-------------------------------------|
E|------------------------------------------------------------|
 
 
      A               E              D
        Zanimiv je zalet, ko izpod krila vidi sled.
      A             E          D
        Zanimivo kako ga jebe led
      A                E             D
        Nekatere, nekatere Stoje smeje gladijo noge,
      A         E             D
        aristocrack jih podre.
 
 
e|--------------------------------------------------------|
B|--------------------------------------------------------|
G|-----------------------------11----9----7----7---7h9-//-|
D|---11-12-14----------------0-----0----0----0---0--------|
A|-0-------------11-12-14---------------------------------|
E|-------------0------------------------------------------|
 
e|-----------------------------------------------------------|
B|-----------------------------------------------------------|
G|-----------------------------11----13---14---14p13--13h14--|
D|---11-12-14----------------0-----0----0----0---------------|
A|-0-------------11-12-14------------------------------------|
E|-------------0---------------------------------------------|
 
e|----------------------------------------------------------|
B|----------------------------------------------------------|
G|--------------------------------11----9----7---7---7h9-//-|
D|---14----11----9----6---6h7---0-----0----0---0---0--------|
A|-0-----0-----0----0---0-----------------------------------|
E|----------------------------------------------------------|
 
e|------------------------------------------------------------|
B|------------------------------------------------------------|
G|--------------------------------11---13---14---14--14-14-\\-|
D|---14----11----9----6---6h7---0----0----0-------------------|
A|-0-----0-----0----0---0-------------------------------------|
E|------------------------------------------------------------|
 
 
Druga kitara (Nekatere, nekatere...):
   A                   E          D
e|--9-9--X-X-9-9-9-9---X-7--7-----5-5---5-5-5-5----|
B|--1010-X-X-10101010--X-9--9-----7-7---7-7-7-7----|
G|--9-9--X-X-9-9-9-9---X-9--9-----7-7---7-7-7-7----|
D|-------------------------------------------------|
A|-------------------------------------------------|
E|-------------------------------------------------|
                     M    M  M       M          M
 
   A                   E            D           |Am
e|--9-9--X-X-9-9-9-9---X-7--7-7-7---5-5--5-5-5-5---------|
B|--1010-X-X-10101010--X-9--9-9-9---7-7--7-7-7-7---------|
G|--9-9--X-X-9-9-9-9---X-9--9-9-9---7-7--7-7-7-7-9-9-9-9-|
D|-------------------------------------------------------|
A|-------------------------------------------------------|
E|-------------------------------------------------------|
                     M    M      M     M           Prevara...
 
 
REFREN 1:
 
        Am                  Em         Dm
        Prevara bi elito napolnila z afero.
                      Am         Em       Dm
        Mi raje dame sanj zlate piccole amore.
                     Am        Em      F
        Prevara bi eliti zaplavala v žrelo.
                     Am        Em       Dm
        Zadeli bomo sami naše piccole amore.
 
 
SOLO:
 
        (Em  F  Dm    ) 3x
        Em  F  G
 
e|----12----12--10h12p10--12/15---13-15--13h15p13\12---10-12--10h12p10---------10v---\-|
B|-10----10-----------------------------------------------------------13-10-13---------|
G|-------------------------------------------------------------------------------------|
D|-------------------------------------------------------------------------------------|
A|-------------------------------------------------------------------------------------|
E|-------------------------------------------------------------------------------------|
 
e|-12----12-12-10h12p10--12/15---13-15--13h15p13\12---10-12--10h12p10----------------|
B|----10-------------------------------------------------------------13-10-13v-----\-|
G|-----------------------------------------------------------------------------------|
D|-----------------------------------------------------------------------------------|
A|-----------------------------------------------------------------------------------|
E|-----------------------------------------------------------------------------------|
 
e|-12----12-12-10h12p10--12/15---13-15--13h15p13\12---10-12--10h12p10---------10v---\-|
B|----10-------------------------------------------------------------13-10-13---------|
G|------------------------------------------------------------------------------------|
D|------------------------------------------------------------------------------------|
A|------------------------------------------------------------------------------------|
E|------------------------------------------------------------------------------------|
 
e|-12----12-12-10h12p10--12/15---13-15-17---15---------13--12-------------------------|
B|----10----------------------------------------13-M13----------------10-13-10v-------|
G|-------------------------------------------------------------12-M12-----------------|
D|------------------------------------------------------------------------------------|
A|------------------------------------------------------------------------------------|
E|------------------------------------------------------------------------------------|
 
 
VERZ 2:
 
e|-----------------------------------------------------------|
B|-----------------------------------------------------------|
G|-----------------------------------------------------------|  --> po solu
D|-----------------------------0-7-7-0-7---------------------|
A|------------------------------------------5---5------------|
E|-5-5-0-0-5----7---0-0---0-----------------------0-2-3-5----|
             M    M     M   M            M    M
 
        A            E           D
        Kriv je um kriv je hrup Dolg je obračun,
        A             E               D
        Trden led je vedno bolj segret,
        A           E       D
        Krila vsa strgana Kriza žge pepel,
        A             E         D
        Maske so popadale na tla.
 
      A             E               D
        A dela dih, a dela gen za ples fatal?
      A                  E              D
        A zgleda to kar delajo, čista plastika?
 
 
e|---------------------------------|
B|---------------------------------|
G|---------------------------------|
D|-----------4---------------4-----|
A|-5-5-5-5-5-5-5-5-5-5-5-5-5-5-5-5-|
E|---------------------------------|
 
e|-----------------------------------------------------------------|
B|-----------------------------------------------------------------|
G|---------------------------------1111119-9-9-7-7-7-7-7-7-7-9-9-9-|
D|-7-7-7-1111119-9-9-6-6-6-7-7-7-7-0-0-0-0-0-0-0-0-0-0-0-0-0-0-0-0-|
A|-0-0-0-0-0-0-0-0-0-0-0-0-0-0-0-0---------------------------------|
E|-----------------------------------------------------------------|
 
e|-----------------------------------------------------------------|
B|-----------------------------------------------------------------|
G|----------------------------------111111131313141414161616161616-|
D|-1414141111119-9-9-6-6-6-7-7-7-7--0-0-0-0-0-0-0-0-0-0-0-0-0-0-0--|
A|-0-0-0-0-0-0-0-0-0-0-0-0-0-0-0-0---------------------------------|
E|-----------------------------------------------------------------|
 
e|----------------------------------------------------------|
B|----------------------------------------------------------|
G|--------------------------------11----9----7---7---7h9-//-|
D|---14----11----9----6---6h7---0-----0----0---0---0--------|
A|-0-----0-----0----0---0-----------------------------------|
E|----------------------------------------------------------|
 
e|---------------------------------------------------------|
B|---------------------------------------------------------|
G|--------------------------------11---13---14-14-14-14-14-|
D|---14----11----9----6---6h7---0----0----0----------------|
A|-0-----0-----0----0---0----------------------------------|
E|---------------------------------------------------------|
 
 
REFREN 2:
 
        Am                  Em         Dm
        Prevara bi elito napolnila z afero.
                      Am         Em       Dm
        Mi raje dame sanj zlate piccole amore.
                     Am        Em      F
        Prevara bi eliti zaplavala v žrelo.
                     Am        Em       Dm
        Zadeli bomo sami naše piccole amore.
 
        (Am  Em  Dm    )  2x
        Am  Em  F
        Am  Em  Dm
 
 
OUTRO:
Zaradi boljše preglednosti sem nad vsakim prijemom spodaj napisal, kolikokrat
ga je treba udariti. Vse prijeme strumajte navzdol.
 
e|-----------------------------------------------------------------------0----|
B|-----------13---13---13---12---13---12---10---10---10---13---12--------0----|
G|-9----12---12---9----12---9----12---9----9----12---9----14---14---14---0----|
D|-0----0----0----0----0----0----0----0----0----0----0----0----0----0----0----|
A|-0----0----0----0----0----0----0----0----0----0----0----0----0----0----0----|
E|-----------------------------------------------------------------------0----|
  16x  16x   9x   7x   9x   7x   9x   4x   3x   9x   7x   9x   4x  20x
 

trzalica posnetek bar

trzalica bar
 

Dodaj komentar


Varnostna koda
Osveži

  Iskanje

config