tablatura akordi besedilo   Platina 9th RMX (tab)

trzalica.com besedilo akordi tablature

Legenda ikon:


Pogoji uporabe.    

besedilo z akordi besedilo z akordi
tablature tablatura (tabulatura)
tablature tablatura za bas
tablature videolekcija

GuitarPro GutarPro (GP)
note Note (v PDF formatu)
sibelius Sibelius (SIB), itd.
..

Vse verzije te pesmi:    besedilo z akordi  Platina       Platina 9th RMX (tab)

trzalica bar

 ___________________________________________________________
|  _______________________________________________________  |
| |                                                       | |
| | IZVAJALEC: .............. Siddharta                   | |
| | PESEM: .................. Platina 9th RMX             | |
| | ALBUM: .................. Silicon delta               | |
| | LETO IZIDA: ............. 2002                        | |
| | TRANSKRIPCIJA: .......... AliAs, Trzalica.com         | |
| |_______________________________________________________| |
|___________________________________________________________|
 
 
    Gm   F    D ali D    Cm   C ali C    D# ali D#
e|--3----1----2----------3----0----------3------------|
B|--3----1----3-----7----4----1-----5----4------8-----| --- prijemi akordov
G|--3----2----2-----7----5----0-----5----3------8-----|
D|--5----3----0-----7----5----2-----5----5------8-----|
A|--5----3----0-----5----3----3-----3----6------6-----|
E|--3----1--------------------------------------------|
 
Akordi remixane verzije se malenkost razlikujejo od originalne Platine.
Napisal sem tudi tablaturo za kitarske vložke.
 
================================================================================================
 
 
INTRO:
   Gm
e|----------------|
B|----------------|
G|----------------|
D|-5--------------|  > harmonični ton
A|----------------|    čedalje glasneje...
E|----------------|
 
 
VERZ 1:
      Gm           F        D       Gm
        Izginjajo barve, izginja nebo.
                     F       D      Gm
        iz teme pristaja nekdo.
                      F          D         Gm
        V srebrnih oblekah ob spremstvu luči,
                   F     D         Gm  C  D
        prinašajo vest, da te več ni.
      Gm            F         D       Gm
        Na listu papirja je njeno slovo
                         F      D    Gm
        štempl venus in noter adijo,
                          F         D          Gm
        kam je šel moj ponos, moj trud, moj pogum,
                            F       D      Gm  C  D
        kaj je razlog da izgineš stran od tu.
 
 
REFREN 1:
      D                    F                   Gm
        Vem, jaz sem bil platina, a hotela si kič, 
                    F               Gm
        jaz sem bil angel a zate hudič, 
                      F           D#
        jaz sem bil kralj celotnega sveta,
                 Cm          F
        a ti na Veneri si doma,
                D    Gm       F
        pa ne znam pridet tja.
                D  Gm
        pa ne znaaaaam.
 
   F      G      F      G      F      D        Cm          F    D   Gm          F    D    Gm
e|------------------------------------------------------------------15----15----15--------15----15----15--|
B|---------------------------------------------------------------------15----15------15------15----15-----|
G|--------------------------------------------------------------------------------------------------------|
D|---------------------------------------------1-----1-----0----------------------------------------------|
A|--------------------------------------0-1-------3-----3-------------------------------------------------|
E|-1----1-3------1----1-3------1------3-------------------------------------------------------------------|
 
 
VERZ 2:
      Gm             F           D       Gm
        Ostaja njen vonj in v okvirju obris
                   F         D    Gm
        raztrgane pesmi in zvok 
                     F       D
        v prazni puščavi še čakam 
             Gm
        na njih strah ostaja.
             F      D      Gm  C  D
        Vem da jih več ne bo.
      Gm              F       D        Gm
        V pesek zdaj rišem besede za njo
                     F          D    Gm
        in upam v odsev na Venero.
                            F      D        Gm
        Vse bi dal, da bi zvedu zakaj in kako.
                          F     D      Gm  C  D
        Vse bi dal, da pokažem kaj lahko.
 
                    4x                          4x (pred refrenom 6x)
e|----------------------------------------|-------------|
B|----------------------------------------|-------------|
G|-------------7--------5--7--------------|-------------|
D|-5-7-8-5-7-8----8--5--------5-----7--8--|-5-7-8-5-7-8-|
A|-------------------------------8--------|-------------|
E|----------------------------------------|-------------|
 
REFREN 2:
      D                    F                   Gm
        Vem, jaz sem bil platina, a hotela si kič, 
                    F               Gm
        jaz sem bil angel a zate hudič, 
                      F           D#
        jaz sem bil kralj celotnega sveta,
                 Cm          F
        a ti na Veneri si doma,
                D    Gm       F
        pa ne znam pridet tja.
                D  Gm
        pa ne znaaaaam.
 
   F      G      F      G      F      D        Cm          F    D   Gm          F    D    Gm
e|------------------------------------------------------------------15----15----15--------15----15----15--|
B|---------------------------------------------------------------------15----15------15------15----15-----|
G|--------------------------------------------------------------------------------------------------------|
D|---------------------------------------------1-----1-----0----------------------------------------------|
A|--------------------------------------0-1-------3-----3-------------------------------------------------|
E|-1----1-3------1----1-3------1------3-------------------------------------------------------------------|
 
BRIDGE:
 
        F Gm Cm F Gm 
        F Gm F D Cm D D#
 
      D#         D    Gm
        In spet je večer.
                     F       D#
        Spet je nad mano planet.
                        D    Gm
        Izgubljam vso svojo moč.
            F      D#
        Postajam slep.
                      D      Gm
        Prisluhi, prividi, vse se podira
                   F         D#
        Vse se krivi, a ne smem,
                 D     Gm  F  Gm  F  Gm  F  Gm  F
        pa vem, da lahko.
 
            Gm   Cm    F
        In vem, da lahko.
         D Gm   Cm    F
        Veeem, da lahko.
        D  Gm      Cm    F
        In   vem, da lahko.
        D   Gm   Cm    F
        In vem, da lahko.
 
        D   Gm   Cm    F
        In vem, da lahko...
        (Jaz sm bil platina, hotla si kič)
         D Gm   Cm    F
        Veeem, da lahko...
        (ja jaz sm bil angel, a zate hudič)
        D  Gm      Cm    F
        In   vem, da lahko...
        (jaz sm kralj vsega, a ti si na Veneri)
        D   Gm   Cm    F
        In vem, da lahko...
 
 
REFREN 3:
      F                                      Gm
        Saj bil sem že platina, a hotela si kič, 
                    F               Gm
        jaz sem bil angel a zate hudič, 
                      F           D#
        jaz sem bil kralj celotnega sveta,
                 Cm          F
        a ti na Veneri si doma,
                D    Gm       F
        pa ne znam pridet tja.
                D  Gm
        pa ne znaaaaam.
 
   F      G      F      G      F      D        Cm          F    D   Gm          F    D    Gm
e|------------------------------------------------------------------15----15----15--------15----15----15--|
B|---------------------------------------------------------------------15----15------15------15----15-----|
G|--------------------------------------------------------------------------------------------------------|
D|---------------------------------------------1-----1-----0----------------------------------------------|
A|--------------------------------------0-1-------3-----3-------------------------------------------------|
E|-1----1-3------1----1-3------1------3-------------------------------------------------------------------|
 


trzalica bar

trzalica bar

Dodaj komentar


Varnostna koda
Osveži

  Iskanje

config