tablatura akordi besedilo   Rave (tab) v2

trzalica.com besedilo akordi tablature

Legenda ikon:


Pogoji uporabe.    

besedilo z akordi besedilo z akordi
tablature tablatura (tabulatura)
tablature tablatura za bas
tablature videolekcija

GuitarPro GutarPro (GP)
note Note (v PDF formatu)
sibelius Sibelius (SIB), itd.
..

Vse verzije te pesmi:      Rave (tab) v1       Rave (tab) v2

trzalica bar

 _______________________________________
|                                       |
| IZVAJALEC: ................ Siddharta |
| PESEM: ......................... Rave |
| ALBUM: .......................... Rh- |
|_______________________________________|
|                                       |
|   Transkripcija: AliAs                |
|   Domača stran: Trzalica.com          |
|_______________________________________|
 
================================================================================================
 
LEGENDA:
M = MUTE
× = palm muted
 
kitara 1. = Primož (standardna uglasitev)
kitara 2. = Tomi (CGCFAD uglasitev -> drop-C)
 
Pesem Rave je studijsko posneta z dvema različno uglašenima kitarama. Ena kitara je
standardno uglašena (Primož,) druga pa je uglašena na drop-C (Tomi).
Tomi igra samo v refrenih in v bridge-u, Primož pa igra tudi v verzih. Vse to je razvidno
tudi iz tabulature.
Vsi akordi v tabulaturi (z izjemo kitare 2.) in v besedilu so napisani za standardno uglasitev.
 
================================================================================================
www.trzalica.com    www.trzalica.com    www.trzalica.com    www.trzalica.com    www.trzalica.com
================================================================================================
 
VERZ 1:  (00:00 - 01:21)
 
        (Cm  Bb  Asus4  D)  2x
 
kitara 1.  (00:22 - 01:21) s tremolo efektom
   Cm             Bb             Asus4          D
e|------------------------------------------------------------|
B|----------------------------------------------------0-------|
G|------------0--------------0--------------0------0----------|
D|-----1--3-----------1--3-----------1--3---------------------|
A|-3--------------1--------------0----------------------------|
E|------------------------------------------------------------|
 
   Cm             Bb             Asus4          D            F     G
e|------------------------------------------------------------|
B|-------------------------------------------------0--3-------|
G|------------0--------------0--------------0-----------------|
D|-----1--3-----------1--3-----------1--3---------------------|
A|-3--------------1--------------0----------------------------|
E|------------------------------------------------------------|
 
      Cm                   Bb                       Asus4
        V večeru svetlih zvezd, ob tihem jezeru nekje,
                        D                         Cm
        v objemu polne lune, samo povabljeni na ples,
                          Bb                     Asus4
        ne poznam vseh obrazov, vsega upanja v očeh,
                        D                      F      G
        ali je nekje odgovor, ali je nekdo ki ve.
 
   Cm             Bb             Asus4          D
e|------------------------------------------------------------|
B|----------------------------------------------------0-------|
G|------------0--------------0--------------0------0----------|
D|-----1--3-----------1--3-----------1--3---------------------|
A|-3--------------1--------------0----------------------------|
E|------------------------------------------------------------|
 
   Cm             Bb             Asus4          D
e|------------------------------------------------------------|
B|-------------------------------------------------0--3-------|
G|------------0--------------0--------------0-----------------|
D|-----1--3-----------1--3-----------1--3---------------------|
A|-3--------------1--------------0----------------------------|
E|------------------------------------------------------------|
 
   Cm             Bb             Asus4          D
e|------------------------------------------------------------|
B|----------------------------------------------------0-------|
G|------------0--------------0--------------0-----------------|
D|-----1--3-----------1--3-----------1--3---------------------|
A|-3--------------1--------------0----------------------------|
E|------------------------------------------------------------|
 
      Cm               Bb                     Asus4
        Prepovedano veselje, prepovedane stvari,
                          D                     Cm
        vse je na dosegu roke, a noben ne govori,
                            Bb                      Asus4
        kar lebdijo vsi v zraku, vsem uhaja pravi smeh,
                             D                         Cm
        kaj je tam za temi vrati, kdo si drzne jih odpret.
                           Bb
        Se naenkrat roke dvignejo, vrata se odpro,
               Asus4                     D
        in v zraku vidim deklico, ki na prsih nosi...
 
 
REFREN 1:  (01:21 - 01:44)
 
                  Cm         D
        Finis Mundi - Konec je sveta,
             F               Eb         Cm         D
        prebuujajo se le še ti-ste saaaaaaaanje o rajueon,
             F                G         >Cm verse2<
        ne viidimo se več, osta-ja siiiijaaaj.
 
kitara 1.
   Cm                              D
e|-----------------------------------------------------------------|
B|-----------------------------------------------------------------|
G|-----------------------------------------------------------------|
D|-5-5-5-5-5---5-5-5-5-5---5-5-5-5-7-7-7-7-7---7-7-7-7-7---7-7-7-7-|
A|-3-3-3-3-3---3-3-3-3-3---3-3-3-3-5-5-5-5-5---5-5-5-5-5---5-5-5-5-|
E|-3-3-3-3-3---3-3-3-3-3---3-3-3-3-5-5-5-5-5---5-5-5-5-5---5-5-5-5-|
             M           M                   M           M
 
   F                               Eb
e|-----------------------------------------------------------------|
B|-----------------------------------------------------------------|
G|-----------------------------------------------------------------|
D|-1010101010--1010101010--101010108-8-8-8-8---8-8-8-8-8---8-8-8-8-|
A|-8-8-8-8-8---8-8-8-8-8---8-8-8-8-6-6-6-6-6---6-6-6-6-6---6-6-6-6-|
E|-8-8-8-8-8---8-8-8-8-8---8-8-8-8-6-6-6-6-6---6-6-6-6-6---6-6-6-6-|
             M           M                   M           M
 
   Cm                              D
e|-----------------------------------------------------------------|
B|-----------------------------------------------------------------|
G|-----------------------------------------------------------------|
D|-5-5-5-5-5---5-5-5-5-5---5-5-5-5-7-7-7-7-7---7-7-7-7-7---7-7-7-7-|
A|-3-3-3-3-3---3-3-3-3-3---3-3-3-3-5-5-5-5-5---5-5-5-5-5---5-5-5-5-|
E|-3-3-3-3-3---3-3-3-3-3---3-3-3-3-5-5-5-5-5---5-5-5-5-5---5-5-5-5-|
             M           M                   M           M
 
   F                               G
e|-----------------------------------------------------------------|
B|-----------------------------------------------------------------|
G|-----------------------------------------------------------------|
D|-3-3-3-3-3---3-3-3-3-3---3-3-3-3-5-5-5-5-5---5-5-5-5-5---5-5-5-5-|
A|-3-3-3-3-3---3-3-3-3-3---3-3-3-3-5-5-5-5-5---5-5-5-5-5---5-5-5-5-|
E|-1-1-1-1-1---1-1-1-1-1---1-1-1-1-3-3-3-3-3---3-3-3-3-3---3-3-3-3-|
             M           M                   M           M        M
 
kitara 2.
   Cm                              D
D|-----------------------------------------------------------------|
A|-----------------------------------------------------------------|
F|-----------------------------------------------------------------|
C|-0-0-0-0-0---0-0-0-0-0---0-0-0-0-2-2-2-2-2---2-2-2-2-2---2-2-2-2-|
G|-0-0-0-0-0---0-0-0-0-0---0-0-0-0-2-2-2-2-2---2-2-2-2-2---2-2-2-2-|
C|-0-0-0-0-0---0-0-0-0-0---0-0-0-0-2-2-2-2-2---2-2-2-2-2---2-2-2-2-|
             M           M                   M           M
 
   F                               Eb
D|-----------------------------------------------------------------|
A|-----------------------------------------------------------------|
F|-----------------------------------------------------------------|
C|-5-5-5-5-5---5-5-5-5-5---5-5-5-5-3-3-3-3-3---3-3-3-3-3---3-3-3-3-|
G|-5-5-5-5-5---5-5-5-5-5---5-5-5-5-3-3-3-3-3---3-3-3-3-3---3-3-3-3-|
C|-5-5-5-5-5---5-5-5-5-5---5-5-5-5-3-3-3-3-3---3-3-3-3-3---3-3-3-3-|
             M           M                   M           M
 
   Cm                              D
D|-----------------------------------------------------------------|
A|-----------------------------------------------------------------|
F|-----------------------------------------------------------------|
C|-0-0-0-0-0---0-0-0-0-0---0-0-0-0-2-2-2-2-2---2-2-2-2-2---2-2-2-2-|
G|-0-0-0-0-0---0-0-0-0-0---0-0-0-0-2-2-2-2-2---2-2-2-2-2---2-2-2-2-|
C|-0-0-0-0-0---0-0-0-0-0---0-0-0-0-2-2-2-2-2---2-2-2-2-2---2-2-2-2-|
             M           M                   M           M
 
   F                               G
D|-----------------------------------------------------------------|
A|-----------------------------------------------------------------|
F|-----------------------------------------------------------------|
C|-5-5-5-5-5---5-5-5-5-5---5-5-5-5-7-7-7-7-7---7-7-7-7-7---7-7-7-7-|
G|-5-5-5-5-5---5-5-5-5-5---5-5-5-5-7-7-7-7-7---7-7-7-7-7---7-7-7-7-|
C|-5-5-5-5-5---5-5-5-5-5---5-5-5-5-7-7-7-7-7---7-7-7-7-7---7-7-7-7-|
             M           M                   M           M        M
 
 
VERZ 2:  (01:44 - 02:27)
 
        Cm  Bb  Asus4  D
 
kitara 1.  s tremolo efektom
 
   Cm             Bb             Asus4          D
e|------------------------------------------------------------|
B|----------------------------------------------------0-------|
G|------------0--------------0--------------0------0----------|
D|-----1--3-----------1--3-----------1--3---------------------|
A|-3--------------1--------------0----------------------------|
E|------------------------------------------------------------|
 
   Cm             Bb             Asus4          D
e|------------------------------------------------------------|
B|-------------------------------------------------0--3-------|
G|------------0--------------0--------------0-----------------|
D|-----1--3-----------1--3-----------1--3---------------------|
A|-3--------------1--------------0----------------------------|
E|------------------------------------------------------------|
 
   Cm             Bb             F              G
e|------------------------------------------------------------|
B|----------------------------------------------------0-------|
G|------------0--------------0--------------0-----------------|
D|-----1--3-----------1--3-----------1--3---------------------|
A|-3--------------1--------------0----------------------------|
E|------------------------------------------------------------|
 
        Cm             Bb       Asus4       D         Cm
        In ta moment, ta melodija, to veselje, ta idila,
                     Bb       Asus4       D         Cm
        vse lepo, vse te oblike, cela morja harmonije,
                Bb       F            G
        je res lep dan kriv da izginemo.
 
 
REFREN 2:  (02:28 - 02:49)
 
                  Cm         D
        Finis Mundi - Konec je sveta,
             F               Eb         Cm         D
        prebuujajo se le še ti-ste saaaaaaaanje o rajueon,
             F                G
        ne viidimo se več, osta-ja siiiijaaaj.
 
kitara 1.
   Cm                              D
e|-----------------------------------------------------------------|
B|-----------------------------------------------------------------|
G|-----------------------------------------------------------------|
D|-5-5-5-5-5---5-5-5-5-5---5-5-5-5-7-7-7-7-7---7-7-7-7-7---7-7-7-7-|
A|-3-3-3-3-3---3-3-3-3-3---3-3-3-3-5-5-5-5-5---5-5-5-5-5---5-5-5-5-|
E|-3-3-3-3-3---3-3-3-3-3---3-3-3-3-5-5-5-5-5---5-5-5-5-5---5-5-5-5-|
             M           M                   M           M
 
   F                               Eb
e|-----------------------------------------------------------------|
B|-----------------------------------------------------------------|
G|-----------------------------------------------------------------|
D|-1010101010--1010101010--101010108-8-8-8-8---8-8-8-8-8---8-8-8-8-|
A|-8-8-8-8-8---8-8-8-8-8---8-8-8-8-6-6-6-6-6---6-6-6-6-6---6-6-6-6-|
E|-8-8-8-8-8---8-8-8-8-8---8-8-8-8-6-6-6-6-6---6-6-6-6-6---6-6-6-6-|
             M           M                   M           M
 
   Cm                              D
e|-----------------------------------------------------------------|
B|-----------------------------------------------------------------|
G|-----------------------------------------------------------------|
D|-5-5-5-5-5---5-5-5-5-5---5-5-5-5-7-7-7-7-7---7-7-7-7-7---7-7-7-7-|
A|-3-3-3-3-3---3-3-3-3-3---3-3-3-3-5-5-5-5-5---5-5-5-5-5---5-5-5-5-|
E|-3-3-3-3-3---3-3-3-3-3---3-3-3-3-5-5-5-5-5---5-5-5-5-5---5-5-5-5-|
             M           M                   M           M
 
   F                               G
e|-----------------------------------------------------------------|
B|-----------------------------------------------------------------|
G|-----------------------------------------------------------------|
D|-3-3-3-3-3---3-3-3-3-3---3-3-3-3-5-5-5-5-5---5-5-5-5-5---5-5-5-5-|
A|-3-3-3-3-3---3-3-3-3-3---3-3-3-3-5-5-5-5-5---5-5-5-5-5---5-5-5-5-|
E|-1-1-1-1-1---1-1-1-1-1---1-1-1-1-3-3-3-3-3---3-3-3-3-3---3-3-3-3-|
             M           M                   M           M        M
 
kitara 2.
   Cm                              D
D|-----------------------------------------------------------------|
A|-----------------------------------------------------------------|
F|-----------------------------------------------------------------|
C|-0-0-0-0-0---0-0-0-0-0---0-0-0-0-2-2-2-2-2---2-2-2-2-2---2-2-2-2-|
G|-0-0-0-0-0---0-0-0-0-0---0-0-0-0-2-2-2-2-2---2-2-2-2-2---2-2-2-2-|
C|-0-0-0-0-0---0-0-0-0-0---0-0-0-0-2-2-2-2-2---2-2-2-2-2---2-2-2-2-|
             M           M                   M           M
 
   F                               Eb
D|-----------------------------------------------------------------|
A|-----------------------------------------------------------------|
F|-----------------------------------------------------------------|
C|-5-5-5-5-5---5-5-5-5-5---5-5-5-5-3-3-3-3-3---3-3-3-3-3---3-3-3-3-|
G|-5-5-5-5-5---5-5-5-5-5---5-5-5-5-3-3-3-3-3---3-3-3-3-3---3-3-3-3-|
C|-5-5-5-5-5---5-5-5-5-5---5-5-5-5-3-3-3-3-3---3-3-3-3-3---3-3-3-3-|
             M           M                   M           M
 
   Cm                              D
D|-----------------------------------------------------------------|
A|-----------------------------------------------------------------|
F|-----------------------------------------------------------------|
C|-0-0-0-0-0---0-0-0-0-0---0-0-0-0-2-2-2-2-2---2-2-2-2-2---2-2-2-2-|
G|-0-0-0-0-0---0-0-0-0-0---0-0-0-0-2-2-2-2-2---2-2-2-2-2---2-2-2-2-|
C|-0-0-0-0-0---0-0-0-0-0---0-0-0-0-2-2-2-2-2---2-2-2-2-2---2-2-2-2-|
             M           M                   M           M
 
   F                               G
D|-----------------------------------------------------------------|
A|-----------------------------------------------------------------|
F|-----------------------------------------------------------------|
C|-5-5-5-5-5---5-5-5-5-5---5-5-5-5-7-7-7-7-7---7-7-7-7-7---7-7-7-7-|
G|-5-5-5-5-5---5-5-5-5-5---5-5-5-5-7-7-7-7-7---7-7-7-7-7---7-7-7-7-|
C|-5-5-5-5-5---5-5-5-5-5---5-5-5-5-7-7-7-7-7---7-7-7-7-7---7-7-7-7-|
             M           M                   M           M        M
 
 
BRIDGE: (02:50 - 03:33)
 
        Bridge sem razdelil na dva dela. Prvi je od 02:50 - 03:11, drugi pa je od 03:12 - 03:33.
 
Prvi del: 02:50 - 03:11
 
kitara 1. (po 6. ponovitvi kitare 2.)
                                                            6x
e|-------------------------------------------------|-----------------|---------------------------------|
B|-------------------------------------------------|-----------------|---------------------------------|
G|-----------------7-7-5-5-7-7-5-5-7-7-5-5-7-7-5-5-|-8-8-7-7-5-5-7-7-|-7-7-5-5-7-7-5-5-7-7-5-5-7-7-5-5-|
D|-------------------------------------------------|-----------------|---------------------------------|
A|-------------------------------------------------|-----------------|---------------------------------|
E|-------------------------------------------------|-----------------|---------------------------------|
                   ×××××××××××××××××××××××××××××××   ×××××××     ××× 
 
kitara 2.
          6x                                                  6x
D|-----------------|---------------------------------|-----------------|---------------------------------|
A|-----------------|---------------------------------|-----------------|---------------------------------|
F|-----------------|---------------------------------|-----------------|---------------------------------|
C|-----------------|---------------------------------|-----------------|---------------------------------|
G|-8-8-7-7-5-5-7-7-|-7-7-5-5-7-7-5-5-7-7-5-5-7-7-5-5-|-8-8-7-7-5-5-7-7-|-7-7-5-5-7-7-5-5-7-7-5-5-7-7-5-5-|
C|-----------------|---------------------------------|-----------------|---------------------------------|
   ×××××××××××××××   ×××××××××××××××××××××××××××××××   ×××××××××××××××
 
Drugi del: 03:12 - 03:33
 
kitara 1. 
e|-----------------|
B|-----------------|
G|-----------------|  6x
D|-----------------|
A|-6-6-5-5-3-3-5-5-|
E|-----------------|
 
e|-------------------------------------------------------------------------------------------------|
B|-------------------------------------------------------------------------------------------------|
G|-------------------------------------------------------------------------------------------------|
D|-------------------------------------------------------------------------------------------------|
A|-5-5-3-3-5-5-3-3-5-5-3-3-5-5-3-3-6-6-5-5-3-3-5-5-6-6-5-5-3-3-6-6-8-8-6-6-5-5-6-6-8-8-6-6-5-5-6-6-|
E|-------------------------------------------------------------------------------------------------|
 
 
e|-------------------------------------------------------------------------------|
B|-------------------------------------------------------------------------------|
G|-------------------------------------------------------------------------------|
D|-------------------------------------------------------------------------------|
A|-10-10-8-8-6-6-8-8-10-10-8-8-6-6-8-8-10-10-------10-10-------10-10-8-8-6-6-5-5-|
E|-------------------------------------------10-10-------10-10-------------------|
 
 
kitara 2.
D|-----------------|
A|-----------------|
F|-----------------|  6x
C|-----------------|
G|-----------------|
C|-3-3-2-2-0-0-2-2-|
 
D|-------------------------------------------------------------------------------------------------|
A|-------------------------------------------------------------------------------------------------|
F|-------------------------------------------------------------------------------------------------|
C|-------------------------------------------------------------------------------------------------|
G|-------------------------------------------------------------------------------------------------|
C|-2-2-0-0-2-2-0-0-2-2-0-0-2-2-0-0-3-3-2-2-0-0-2-2-3-3-2-2-0-0-3-3-5-5-3-3-2-2-3-3-5-5-3-3-2-2-3-3-|
 
 
D|-----------------------------------------------------------------|
A|-----------------------------------------------------------------|
F|-----------------------------------------------------------------|
C|-----------------------------------------------------------------|
G|---------------------------------0-0-----0-0-----0-0-------------|
C|-7-7-5-5-3-3-5-5-7-7-5-5-3-3-5-5-----2-2-----2-2-----5-5-3-3-2-2-|
 
 
REFREN 3:  (03:34 - 04:39)
 
                  Cm         D
        Finis Mundi - Konec je sveta,
             F               Eb         Cm         D
        prebuujajo se le še ti-ste saaaaaaaanje o rajueon,
             F                G
        ne viidimo se več, ostaja le...
                  Cm         D
        Finis Mundi - Konec je sveta,
             F               Eb         Cm         D
        prebuujajo se le še ti-ste saaaaaaaanje o rajueon,
             F                G          Cm
        ne viidimo se več, osta-ja siiiijaaaj,
              D           F      Eb   Cm   D   F   G
        siiiijaaaj, siiiijaaaj.
 
kitara 1. (3x)
   Cm                              D
e|-----------------------------------------------------------------|
B|-----------------------------------------------------------------|
G|-----------------------------------------------------------------|
D|-5-5-5-5-5---5-5-5-5-5---5-5-5-5-7-7-7-7-7---7-7-7-7-7---7-7-7-7-|
A|-3-3-3-3-3---3-3-3-3-3---3-3-3-3-5-5-5-5-5---5-5-5-5-5---5-5-5-5-|
E|-3-3-3-3-3---3-3-3-3-3---3-3-3-3-5-5-5-5-5---5-5-5-5-5---5-5-5-5-|
             M           M                   M           M
 
   F                               Eb
e|-----------------------------------------------------------------|
B|-----------------------------------------------------------------|
G|-----------------------------------------------------------------|
D|-1010101010--1010101010--101010108-8-8-8-8---8-8-8-8-8---8-8-8-8-|
A|-8-8-8-8-8---8-8-8-8-8---8-8-8-8-6-6-6-6-6---6-6-6-6-6---6-6-6-6-|
E|-8-8-8-8-8---8-8-8-8-8---8-8-8-8-6-6-6-6-6---6-6-6-6-6---6-6-6-6-|
             M           M                   M           M
 
   Cm                              D
e|-----------------------------------------------------------------|
B|-----------------------------------------------------------------|
G|-----------------------------------------------------------------|
D|-5-5-5-5-5---5-5-5-5-5---5-5-5-5-7-7-7-7-7---7-7-7-7-7---7-7-7-7-|
A|-3-3-3-3-3---3-3-3-3-3---3-3-3-3-5-5-5-5-5---5-5-5-5-5---5-5-5-5-|
E|-3-3-3-3-3---3-3-3-3-3---3-3-3-3-5-5-5-5-5---5-5-5-5-5---5-5-5-5-|
             M           M                   M           M
 
   F                               G
e|-----------------------------------------------------------------|
B|-----------------------------------------------------------------|
G|-----------------------------------------------------------------|
D|-3-3-3-3-3---3-3-3-3-3---3-3-3-3-5-5-5-5-5---5-5-5-5-5---5-5-5-5-|
A|-3-3-3-3-3---3-3-3-3-3---3-3-3-3-5-5-5-5-5---5-5-5-5-5---5-5-5-5-|
E|-1-1-1-1-1---1-1-1-1-1---1-1-1-1-3-3-3-3-3---3-3-3-3-3---3-3-3-3-|
             M           M                   M           M        M
 
kitara 2. (3x)
   Cm                              D
D|-----------------------------------------------------------------|
A|-----------------------------------------------------------------|
F|-----------------------------------------------------------------|
C|-0-0-0-0-0---0-0-0-0-0---0-0-0-0-2-2-2-2-2---2-2-2-2-2---2-2-2-2-|
G|-0-0-0-0-0---0-0-0-0-0---0-0-0-0-2-2-2-2-2---2-2-2-2-2---2-2-2-2-|
C|-0-0-0-0-0---0-0-0-0-0---0-0-0-0-2-2-2-2-2---2-2-2-2-2---2-2-2-2-|
             M           M                   M           M
 
   F                               Eb
D|-----------------------------------------------------------------|
A|-----------------------------------------------------------------|
F|-----------------------------------------------------------------|
C|-5-5-5-5-5---5-5-5-5-5---5-5-5-5-3-3-3-3-3---3-3-3-3-3---3-3-3-3-|
G|-5-5-5-5-5---5-5-5-5-5---5-5-5-5-3-3-3-3-3---3-3-3-3-3---3-3-3-3-|
C|-5-5-5-5-5---5-5-5-5-5---5-5-5-5-3-3-3-3-3---3-3-3-3-3---3-3-3-3-|
             M           M                   M           M
 
   Cm                              D
D|-----------------------------------------------------------------|
A|-----------------------------------------------------------------|
F|-----------------------------------------------------------------|
C|-0-0-0-0-0---0-0-0-0-0---0-0-0-0-2-2-2-2-2---2-2-2-2-2---2-2-2-2-|
G|-0-0-0-0-0---0-0-0-0-0---0-0-0-0-2-2-2-2-2---2-2-2-2-2---2-2-2-2-|
C|-0-0-0-0-0---0-0-0-0-0---0-0-0-0-2-2-2-2-2---2-2-2-2-2---2-2-2-2-|
             M           M                   M           M
 
   F                               G
D|-----------------------------------------------------------------|
A|-----------------------------------------------------------------|
F|-----------------------------------------------------------------|
C|-5-5-5-5-5---5-5-5-5-5---5-5-5-5-7-7-7-7-7---7-7-7-7-7---7-7-7-7-|
G|-5-5-5-5-5---5-5-5-5-5---5-5-5-5-7-7-7-7-7---7-7-7-7-7---7-7-7-7-|
C|-5-5-5-5-5---5-5-5-5-5---5-5-5-5-7-7-7-7-7---7-7-7-7-7---7-7-7-7-|
             M           M                   M           M        M
 


trzalica bartrzalica bar

Dodaj komentar


Varnostna koda
Osveži

  Iskanje

config