tablatura akordi besedilo   Ring (tab)

trzalica.com besedilo akordi tablature

Legenda ikon:


Pogoji uporabe.    

besedilo z akordi besedilo z akordi
tablature tablatura (tabulatura)
tablature tablatura za bas
tablature videolekcija

GuitarPro GutarPro (GP)
note Note (v PDF formatu)
sibelius Sibelius (SIB), itd.
..

 _______________________________________
|                                       |
| IZVAJALEC: ................ Siddharta |
| PESEM: ......................... Ring |
| ALBUM: .......................... Rh- |
|_______________________________________|
|                                       |
|   Transkripcija: AliAs                |
|   Domača stran: Trzalica.com          |
|_______________________________________|
 
================================================================================================
 
LEGENDA:
M = MUTE
× = palm muted
X = muffled
/ = slide up
\ = slide down
~ = let ring
p = pull off
h = hammer on
 
kitara 1. = Primož
kitara 2. = Tomi
 
================================================================================================
www.trzalica.com    www.trzalica.com    www.trzalica.com    www.trzalica.com    www.trzalica.com
================================================================================================
 
INTRO:  (00:00 - 00:33)
 
kitara 2. 
                 3x
e|----------------------------------|-------------------------|
B|----------------------------------|-------------------------|
G|-----9-9--------7-9----9-9h11-9---|-----9-9--------7-9------|
D|---------9-9--9-----7-------------|---------9-9--9----------|
A|-7-7------------------------------|-7-7----------------0----|
E|----------------------------------|-------------------------|
 
kitara 1. (tik pred tretjo ponovitvijo kitare 2)-z delay efektom
e|-------|
B|-------|
G|-------|
D|-4///9-|
A|-------|
E|-------|
 
obe kitari:
   E        B     G   A      G          E      B     G   A
e|-----------------------------------------------------------------------|
B|-----------------------------------------------------------------------|
G|-----------------------------------------------------------------------|
D|----2--2--4--4--5---7--7-7-5--5-5-5-5-2--2-2-4--4--5---7--7-7----------|
A|-22-2--2--2--2--5---7--7-7-5--5-5-5-5-2--2-2-2--2--5---7--7-7------5h7-|
E|-00-0--0--2--2--3---5--5-5-3--3-3-3-3-0--0-0-2--2--3---5--5-5---5h7----|
   ××
 
   E     B     G   A      G          E      B     G   A
e|--------------------------------------------------------------|
B|--------------------------------------------------------------|
G|--------------------------------------------------------------|
D|-2--2--4--4--5---7--7-7-5--5-5-5-5-2--2-2-4--4--5---7---------|
A|-2--2--2--2--5---7--7-7-5--5-5-5-5-2--2-2-2--2--5---7------77-|
E|-0--0--2--2--3---5--5-5-3--3-3-3-3-0--0-0-2--2--3---5------55-|
                                                       ~~~~~~××
 
VERZ 1:  (00:33 - 01:06)
 
                Em                 D
        Če bi imel ves denar in doma zlato,
              Am                       Em
        se bojim da bi naenkrat vse izginilo,
                                D
        še nedolžen smeh spremenim v jok,
               Am                      Em
        in na Zemlji priredim velik vihar tegob.
                              D
        Če bi bil vladar in imel to moč,
             Am                     Em
        nenamerno bi ugasnil dan naredu noč,
                               D
        se le meni zdi, da mi te stvari,
            Am                     Em
        sledijo kot vohun ki me ne izpusti.
 
kitara 1. -z delay efektom
e|-----------------|
B|-----------------|
G|-4///9-----------| --4x
D|-----------------|
A|-----------------|
E|-----------------|
 
 
REFREN 1:  (01:07 - 01:30)
 
              Am                  D
        A ne vidiš da samo, a ne vidiš da samo.
        C  D           Em          G              D            Am
        Daaaajem ti strup v čaj, zdaj vem kaj je razlog da te ni nazaj,
        C  Am       Em       G          D                Am         B
        niiiimam izgovorov, jaz samo ne bi rad na koncu sam ostal.
 
obe kitari:
   Am   D        C     D         Em                 G     D         Am
e|------------------------------------------------------------------------------------|
B|------------------------------------------------------------------------------------|
G|-----------XXXX---------------------------------------------------------------------|
D|-2----7----XXXX5-----7-----7-7-2-----2-2-----2-2--5-----7-----7-7-7-----7-7-----7-7-|
A|-0----5----XXXX3--33-5--55-5-5-2--22-2-2--22-2-2--5--55-5--55-5-5-7--77-7-7--77-7-7-|
E|-0----5----XXXX3--33-5--55-5-5-0--00-0-0--00-0-0--3--33-5--55-5-5-5--55-5-5--55-5-5-|
    ~~~~ ~~~~       ××    ××        ××      ××         ××    ××        ××      ××
 
   C      Am        Em                  G      D         Am                 B
e|------------------------------------------------------------------------------------|
B|------------------------------------------------------------------------------------|
G|------------------------------------------------------------------------------------|
D|-5--5-5-7-----7-7-2--2-2-2-2-----2-2--5--5-5-7-----7-7-7--7-7-7-7-----7-7-4---------|
A|-3--3-3-7--77-7-7-2--2-2-2-2--22-2-2--5--5-5-5--55-5-5-7--7-7-7-7--77-7-7-2------22-|
E|-3--3-3-5--55-5-5-0--0-0-0-0--00-0-0--3--3-3-5--55-5-5-5--5-5-5-5--55-5-5-2------22-|
             ××                 ××                ××                 ××      ~~~~~~××
 
VERZ 2:  (01:30 - 02:03)
 
                Em              D
        Če bi imela denar, in vse zlato,
                Am                    Em
        ti bi znala naredit iz tega pravljico,
                                D
        in nedolžen jok, spremeniš v smeh,
               Am                       Em
        in na Zemlji prirediš vsem nepozaben ples.
                              D
        Če si ti vladar, bi imela moč,
                 Am                 Em
        vsi ljudje bi se zabavali vsako noč,
                            D
        a le meni to, ni nikoli šlo,
              Am                    Em
        moja ladja še na suhem potonila bo.
 
kitara 1.
e|------------------------------------|
B|------------------------------------|
G|-4///9------9-\7--------------------| --4x
D|----------9---------5-/7------------|
A|----------------------------5-/7----|
E|------------------------------------|
 
 
REFREN 2:  (02:04 - 02:25)
 
              Am                  D
        A ne vidiš da samo, a ne vidiš da samo.
        C  D           Em          G              D            Am
        Daaaajem ti strup v čaj, zdaj vem kaj je razlog da te ni nazaj,
        C  Am       Em       G          D                Am
        niiiimam izgovorov, jaz samo ne bi rad na koncu sam ostal.
 
obe kitari:
   Am   D        C     D         Em                 G     D         Am
e|------------------------------------------------------------------------------------|
B|------------------------------------------------------------------------------------|
G|-----------XXXX---------------------------------------------------------------------|
D|-2----7----XXXX5-----7-----7-7-2-----2-2-----2-2--5-----7-----7-7-7-----7-7-----7-7-|
A|-0----5----XXXX3--33-5--55-5-5-2--22-2-2--22-2-2--5--55-5--55-5-5-7--77-7-7--77-7-7-|
E|-0----5----XXXX3--33-5--55-5-5-0--00-0-0--00-0-0--3--33-5--55-5-5-5--55-5-5--55-5-5-|
    ~~~~ ~~~~       ××    ××        ××      ××         ××    ××        ××      ××
 
   C      Am        Em                  G      D         Am
e|--------------------------------------------------------------------------|
B|--------------------------------------------------------------------------|
G|--------------------------------------------------------------------------|
D|-5--5-5-7-----7-7-2--2-2-2-2-----2-2--5--5-5-7-----7-7-7--7-7-7-7-----7-7-|
A|-3--3-3-7--77-7-7-2--2-2-2-2--22-2-2--5--5-5-5--55-5-5-7--7-7-7-7--77-7-7-|
E|-3--3-3-5--55-5-5-0--0-0-0-0--00-0-0--3--3-3-5--55-5-5-5--5-5-5-5--55-5-5-|
             ××                 ××                ××                 ××
 
 
BRIDGE:  (02:25 - 02:42)
 
obe kitari:
e|------------------------------------------------------------------|
B|------------------------------------------------------------------|
G|------------------------------------------------------------------|
D|------------------------------------------------------------------|
A|-----7-7--------5-7----7-7/9\7--------7-7--------5-7----------5h7-|
E|-0-0-----7-7--7-----5-------------0-0-----7-7--7-----5-----5h7----|
 
e|--------------------------------------------------------------------|
B|--------------------------------------------------------------------|
G|--------------------------------------------------------------------|
D|--------------------------------------------------------------------|
A|-----7-7--------5-7----7-7/9\7--------7-7--------5-7----------------|
E|-0-0-----7-7--7-----5-------------0-0-----7-7--7-----5---555777755\-|
                                                           ××
 
REFREN 3 (Outro):  (02:42 - 03:20)
 
              Em                   G              D            Am
        Daaaajem ti strup v čaj, zdaj vem kaj je razlog da te ni nazaj,
        C  Am       Em       G          D                Am
        niiiimam izgovorov, jaz samo ne bi rad na koncu sam ostal.
 
Outro: C  D           Em          G              D            Am
        Daaaajem ti strup v čaj, zdaj vem kaj je razlog da te ni nazaj,
        C  Am       Em       G          D                Am          B
        niiiimam izgovorov, jaz samo ne bi rad na koncu sam ostal.
 
obe kitari:
   Em                 G     D         Am
e|------------------------------------------------------|
B|------------------------------------------------------|
G|------------------------------------------------------|
D|-2-----2-2-----2-2--5-----7-----7-7-7-----7-7-----7-7-|
A|-2--22-2-2--22-2-2--5--55-5--55-5-5-7--77-7-7--77-7-7-|
E|-0--00-0-0--00-0-0--3--33-5--55-5-5-5--55-5-5--55-5-5-|
      ××      ××         ××    ××        ××      ××
 
   C      Am        Em                  G      D         Am
e|--------------------------------------------------------------------------|
B|--------------------------------------------------------------------------|
G|--------------------------------------------------------------------------|
D|-5--5-5-7-----7-7-2--2-2-2-2-----2-2--5--5-5-7-----7-7-7--7-7-7-7-----7-7-|
A|-3--3-3-7--77-7-7-2--2-2-2-2--22-2-2--5--5-5-5--55-5-5-7--7-7-7-7--77-7-7-|
E|-3--3-3-5--55-5-5-0--0-0-0-0--00-0-0--3--3-3-5--55-5-5-5--5-5-5-5--55-5-5-|
             ××                 ××                ××                 ××
 
Outro; obe kitari:  (02:59 - 03:20)
 
   C               D               Em
e|-----------------------------------------------------------------|
B|-----------------------------------------------------------------|
G|-----------------------------------------------------------------|
D|-----------------------------------------------------------------|
A|-3-3-5-5-7-3-3-3-5-5-7-7-9-5-5-5-7-7-9-9-8-7-7-7-7-7-9-9-8-7-7-7-|
E|-----------------------------------------------------------------|
   ×××××××××××××××××××××××××××××××××××××××××××××××××××××××××××××××
 
   G               D               Am
e|-----------------------------------------------------------------|
B|-----------------------------------------------------------------|
G|-----------------------------------------------------------------|
D|-----------------------------------------------------------------|
A|-----------------5-5-7-7-9-5-5-5-0-0-2-2-3-0-0-0-0-0-2-2-3-0-0-0-|
E|-3-3-5-5-7-3-3-3-------------------------------------------------|
   ×××××××××××××××××××××××××××××××××××××××××××××××××××××××××××××××
 
   C               Am              Em
e|-----------------------------------------------------------------|
B|-----------------------------------------------------------------|
G|-----------------------------------------------------------------|
D|-----------------------------------------------------------------|
A|-3-3-5-5-7-3-3-3-0-0-2-2-3-0-0-0---------------------------------|
E|---------------------------------0-0-2-2-3-0-0-0-0-0-2-2-3-0-0-0-|
 
   G               D               Am                              B
e|-----------------------------------------------------------------------------|
B|-----------------------------------------------------------------------------|
G|-----------------------------------------------------------------------------|
D|-----------------------------------------------------------------4-----------|
A|-----------------5-5-7-7-9-5-5-5-0-0-2-2-3-0-0-0-0-0-2-2-3-0-0-0-2-----------|
E|-3-3-5-5-7-3-3-3-------------------------------------------------2-----------|
                                                                    ~~~~~~~~~~~
 

trzalica posnetek bar

trzalica bar
 

Dodaj komentar


Varnostna koda
Osveži

  Iskanje

config