tablatura akordi besedilo   Rooskie (tab) v1

trzalica.com besedilo akordi tablature

Legenda ikon:


Pogoji uporabe.    

besedilo z akordi besedilo z akordi
tablature tablatura (tabulatura)
tablature tablatura za bas
tablature videolekcija

GuitarPro GutarPro (GP)
note Note (v PDF formatu)
sibelius Sibelius (SIB), itd.
..

Vse verzije te pesmi:      Rooskie (tab) v1       Rooskie (tab) v2

trzalica bar

 Izvajalec: ..................... Siddharta
 Skladba: ....................... Rooskie
 Transkripcijo izdelal .......... Ta e-poštni naslov je zaščiten proti smetenju. Potrebujete Javascript za pogled.
 Domača stran transkripcije ..... www.trzalica.com

 POSODOBIL: AliAs, 28.3.2007

================================================================================

 Siddharta - Rooskie

Drop D (zgrornjo E struno uglasite navzdol na D = Drop-D)

intro:

E|-----------------------------------|
B|-----------------------------------|
G|-----------------------------------| 3x
D|-----------------------------------|
A|-2----------------2----------------|
D|---2----2-0-2-3-2---2----2-0-2-3---|

E|-----------------------------------|
B|-----------------------------------|
G|-----------------------------------| 3x
D|-----------------------------------|
A|-2----------------2----------------|
D|---2----2-0-2-5-2---2----2-0-3-5---|



verz I:

E|-----------------------------------|
B|-----------------------------------|
G|-----------------------------------| 2x
D|-----------------------------------|
A|-2-2-223-3-2-3-2-------------------|
D|--------------------22-3-3-2-3-2---|

verz II:

E|-----------------------------------|
B|-----------------------------------|
G|-----------------------------------|
D|-----------------------------------|
A|-2-2-225-5-2-3-2-------------------|
D|--------------------22-3-3-2-3-2---|

(verz I) 5x
(verz II)
(verz I)

ref I:

E|-----------------------------------------------------|
B|-----------------------------------------------------|
G|-6-6-6-6-8-8-8-8-10-10-10-10-5-5-5-5-6-6-6-6-8-8-8-8-|
D|-6-6-6-6-8-8-8-8-10-10-10-10-5-5-5-5-6-6-6-6-8-8-8-8-|
A|-4-4-4-4-6-6-6-6-8--8--8--8--3-3-3-3-4-4-4-4-6-6-6-6-|
D|-----------------------------------------------------|

ref II:

E|-----------------------------------|
B|-----------------------------------|
G|-----------------------------------|
D|-----------------------------------|
A|-3----------------3----------------|
D|---3----3-1-3-4-3---3----3-1-3-4---|

(ref I)
(ref II)

(verz I) 5x
(verz II)
(verz I) 5x
(verz II)
(verz I)

(ref I)
(ref II)
(ref I)


bridge:

(spremljava z basom: ref II)

kitara medtem:

E|-----------------------------------|
B|-----------------------------------|
G|-------3-5-6-3h5-3-----------------| 3x
D|-1h3-3-------------5h6-5-3---------|
A|-----------------------------------|
D|-----------------------------------|

E|-----------------------------------|
B|-----------------------------------|
G|-------6-5-3-5-3-------------------|
D|-1h3-3-----------5h6-5-3-----------|
A|-----------------------------------|
D|-----------------------------------|

E|--------------------------------|
B|--------------------------------|
G|-6-6-6-6-6-6-6-6-8-8-8-8-8-8-8-8|
D|-6-6-6-6-6-6-6-6-8-8-8-8-8-8-8-8|
A|-4-4-4-4-4-4-4-4-6-6-6-6-6-6-6-6|
D|--------------------------------|
|----------------m----------------|

E|----------------------------------|
B|----------------------------------|
G|-10-------5-------6-------8-------| 3x
D|-10-------5-------6-------8-------|
A|-8--------3-------4-------6-------|
D|----------------------------------|

E|----------|
B|----------|
G|-10-------|
D|-10-------|
A|-8--------|
D|----------|

Ta e-poštni naslov je zaščiten proti smetenju. Potrebujete Javascript za pogled.
trzalica bartrzalica bar

Dodaj komentar


Varnostna koda
Osveži

  Iskanje

config