tablatura akordi besedilo   Rooskie (tab) v2

trzalica.com besedilo akordi tablature

Legenda ikon:


Pogoji uporabe.    

besedilo z akordi besedilo z akordi
tablature tablatura (tabulatura)
tablature tablatura za bas
tablature videolekcija

GuitarPro GutarPro (GP)
note Note (v PDF formatu)
sibelius Sibelius (SIB), itd.
..

Vse verzije te pesmi:      Rooskie (tab) v1       Rooskie (tab) v2

trzalica bar

 _______________________________________
|                                       |
| IZVAJALEC: ................ Siddharta |
| PESEM: ...................... Rooskie |
| ALBUM: .......................... Rh- |
|_______________________________________|
|                                       |
|   Transkripcija: AliAs                |
|   Domača stran: Trzalica.com          |
|_______________________________________|
 
================================================================================================
 
LEGENDA:
M = MUTE
× = palm muted
~ = let ring
p = pull off
h = hammer on
 
UGLASITEV: D G C F A D (en ton nižje)
 
TRANSPONACIJA AKORDOV:
 
D G C F A D uglasitev ------------ standardna uglasitev 
 (navidezni prijemi)                  (pravi akordi)
 
                D#  ---------------->   C#
                F   ---------------->   D#
                Gm  ---------------->   Fm
                Dm  ---------------->   Cm
 
Tabulatura in (navidezni) akordi v besedilu, so napisani za en ton nižjo uglasitev - D G C F A D.
Za igranje po tabulaturi morate kitaro torej uglasiti za en ton nižje, če pa boste igrali samo
akorde na standardni uglasitvi, pa glejte zgornjo tabelo, ki prikazuje katere akorde je treba
prijeti namesto navideznih.
 
================================================================================================
www.trzalica.com    www.trzalica.com    www.trzalica.com    www.trzalica.com    www.trzalica.com
================================================================================================
 
INTRO:  (00:03 - 00:15)
                3x
D|---------------------------------|---------------------------------|
A|---------------------------------|---------------------------------|
F|---------------------------------|---------------------------------|
C|-----------------------------5---|-----------------------------7---|
G|-4---------------4-----------5---|-4---------------4-----------7---|
D|---2---2-0-2-3-2---2---2-0-2-3---|---2---2-0-2-5-2---2---2-0-3-5---|
       M               M                 M               M
 
 
VERZ 1:  (00:15 - 00:45)
 
                 2x
D|-------------------------------|-------------------------------------------------------------|
A|-------------------------------|-------------------------------------------------------------|
F|-------------------------------|-------------------------------------------------------------|
C|-------------------------------|-------------------------------------------------------------|
G|-4-4-445-5-4-5-4---------------|-4-4-447-7-5-4-4---------------4-4-445-5-4-5-4---------------|
D|--------------------223-2-3-2--|--------------------223-2-3-2---------------------223-2-3-2--|
                   M            M                  M            M                M            M
 
        Iz daljnega mesta pripeljala si se v našo vas,
        iz daljnega mesta pripeljala si se v našo vas,
        in zdiš se mi čisto za, da se nocoj zabavava,
        za kakšen pogovor med seboj morda zmeniva.
 
                 4x
D|-------------------------------|-------------------------------------------------------------|
A|-------------------------------|-------------------------------------------------------------|
F|-------------------------------|-------------------------------------------------------------|
C|-------------------------------|-------------------------------------------------------------|
G|-4-4-445-5-4-5-4---------------|-4-4-447-7-5-4-4---------------4-4-445-5-4-5-4---------------|
D|--------------------223-2-3-2--|--------------------223-2-3-2---------------------223-2-3-2--|
                   M            M                  M            M                M            M
 
        V disku Volante se dobiva na to lepo noč,
        v disku Volante se dobiva na to lepo noč,
        nikar ne pozabi ta večer lahko postane vroč,
        morda na začetku bo moj glas nekoliko tresoč.
 
 
REFREN 1:  (00:52 - 01:16)
 
        D#                   F  -------\
        In kar naenkrat sem nem,        \
         Gm         Dm         D#        |__ 2x
        vidim jo kako prihaja ji,        |
                   F                    /
        ponudim roko, pohvalim jo.  ---/
 
   D#              F               Gm              Dm
D|-----------------------------------------------------------------|
A|-----------------------------------------------------------------|
F|-----------------------------------------------------------------|
C|-5-5-5-5-5-5-5-5-3-3-3-3-3-3-3-3-5-5-5-5-5-5-5-5-7-7-7-7-7-7-7-7-|  --\
G|-6-6-6-6-6-6-6-6-3-3-3-3-3-3-3-3-5-5-5-5-5-5-5-5-5-5-5-5-5-5-5-5-|     \
D|-6-6-6-6-6-6-6-6-1-1-1-1-1-1-1-1-3-3-3-3-3-3-3-3-5-5-5-5-5-5-5-5-|      \
                                                                           |__ 2x
   D#              F                                                       |
D|-----------------------------------------------------------------|      /
A|-----------------------------------------------------------------|     /
F|-----------------------------------------------------------------|  --/
C|-5-5-5-5-5-5-5-5-3-3-3-3-3-3-3-3---------------------------------|
G|-6-6-6-6-6-6-6-6-3-3-3-3-3-3-3-3-5---------------5---------------|
D|-6-6-6-6-6-6-6-6-1-1-1-1-1-1-1-1---3---3-1-3-4-3---3---3-1-3-4---|
                                       M               M
 
 
VERZ 2:  (01:16 - 01:55)
 
                 5x
D|-------------------------------|-------------------------------------------------------------|
A|-------------------------------|-------------------------------------------------------------|
F|-------------------------------|-------------------------------------------------------------|
C|-------------------------------|-------------------------------------------------------------|
G|-4-4-445-5-4-5-4---------------|-4-4-447-7-5-4-4---------------4-4-445-5-4-5-4---------------|
D|--------------------223-2-3-2--|--------------------223-2-3-2---------------------223-2-3-2--|
                   M            M                  M            M                M            M
 
        Ob prijetni debati se z očmi počasi slačiva,
        ob prijetni debati se z očmi počasi slačiva,
        iz polnih kozarcev si pogum vase nalivava,
        nebeško pohoto eden drugemu priznavava.
 
                 4x
D|-------------------------------|-------------------------------------------------------------|
A|-------------------------------|-------------------------------------------------------------|
F|-------------------------------|-------------------------------------------------------------|
C|-------------------------------|-------------------------------------------------------------|
G|-4-4-445-5-4-5-4---------------|-4-4-447-7-5-4-4---------------4-4-445-5-4-5-4---------------|
D|--------------------223-2-3-2--|--------------------223-2-3-2---------------------223-2-3-2--|
                   M            M                  M            M                M            M
 
        Iz tistega diska hitro sva odrinila domov,
        iz tistega diska hitro sva odrinila domov,
        na koncu pomembno povabilo, naj ostanem z njo,
        takrat sva zagledala kako odpira se nebo.
 
 
REFREN 2:  (01:58 - 02:19)
 
        D#                   F  -------\
        In kar naenkrat sem nem,        \
         Gm         Dm         D#        |__ 2x
        vidim jo kako prihaja ji,        |
                   F                    /
        ponudim roko, pohvalim jo.  ---/
 
   D#              F               Gm              Dm
D|-----------------------------------------------------------------|
A|-----------------------------------------------------------------|
F|-----------------------------------------------------------------|
C|-5-5-5-5-5-5-5-5-3-3-3-3-3-3-3-3-5-5-5-5-5-5-5-5-7-7-7-7-7-7-7-7-|
G|-6-6-6-6-6-6-6-6-3-3-3-3-3-3-3-3-5-5-5-5-5-5-5-5-5-5-5-5-5-5-5-5-|
D|-6-6-6-6-6-6-6-6-1-1-1-1-1-1-1-1-3-3-3-3-3-3-3-3-5-5-5-5-5-5-5-5-|
 
   D#              F
D|-----------------------------------------------------------------|
A|-----------------------------------------------------------------|
F|-----------------------------------------------------------------|
C|-5-5-5-5-5-5-5-5-3-3-3-3-3-3-3-3---------------------------------|
G|-6-6-6-6-6-6-6-6-3-3-3-3-3-3-3-3-5---------------5---------------|
D|-6-6-6-6-6-6-6-6-1-1-1-1-1-1-1-1---3---3-1-3-4-3---3---3-1-3-4---|
                                       M               M
 
   D#              F               Gm              Dm
D|-----------------------------------------------------------------|
A|-----------------------------------------------------------------|
F|-----------------------------------------------------------------|
C|-5-5-5-5-5-5-5-5-3-3-3-3-3-3-3-3-5-5-5-5-5-5-5-5-7-7-7-7-7-7-7-7-|
G|-6-6-6-6-6-6-6-6-3-3-3-3-3-3-3-3-5-5-5-5-5-5-5-5-5-5-5-5-5-5-5-5-|
D|-6-6-6-6-6-6-6-6-1-1-1-1-1-1-1-1-3-3-3-3-3-3-3-3-5-5-5-5-5-5-5-5-|
 
   D#              F
D|---------------------------------|
A|---------------------------------|
F|---------------------------------|
C|-5-5-5-5-5-5-5-5-3-3-3-3-3-3-3-3-|
G|-6-6-6-6-6-6-6-6-3-3-3-3-3-3-3-3-|
D|-6-6-6-6-6-6-6-6-1-1-1-1-1-1-1-1-|
 
 
BRIDGE:  (02:20 - 02:45)
 
                      vidim jo kako                             vidim  jo  kako
D|---------------------------------------------------------------------------------------|
A|-----------3--4--3h4p3-------------------------------3--4--3h5p3-----------------------|
F|-----3--5--------------5--3--2-----------------3--5--------------5--3h5p3-2------------|
C|-3-5----------------------------5----------3-5------------------------------5----------|
G|---------------------------------------------------------------------------------------|
D|---------------------------------------------------------------------------------------|
 
D|-------------------------------------------------------------------------------------------|
A|-----------3--4--3h4p3----------3-----------------3--4--3----------------------------------|
F|-----3--5--------------5--3--5------------------2----------5--3h5p3-2--0-----0-------------|
C|-3-5-------------------------------0----------0---------------------------3-----0----------|
G|-------------------------------------------------------------------------------------------|
D|-------------------------------------------------------------------------------------------|
 
 
OUTRO:  (02:46 - 03:28)
 
        D#                   F
        In kar naenkrat sem nem,
         Gm         Dm         D#
        vidim jo kako prihaja ji,
                   F            Gm   Dm
        ponudim roko, pohvalim jooooooo.
 
        D#                   F
        In kar naenkrat sem nem,
         Gm         Dm         D#
        vidim jo kako prihaja ji,
                   F            Gm
        ponudim roko, pohvalim jo.
 
   D#              F               Gm          Dm          D#          F           Gm          Dm
D|-------------------------------------------------------------------------------------------------------|
A|-------------------------------------------------------------------------------------------------------|
F|---------------------------------------------------------------------------------------------7---------|
C|-------------------------3-3-3-3-5-----------7-----------5-----------3-----------5-----------7---------|
G|-6-6-6-6-6-6-6-6-3-3-3-3-3-3-3-3-5-----------5-----------6-----------3-----------5-----------5---------|
D|-6-6-6-6-6-6-6-6-1-1-1-1-1-1-1-1-3-----------5-----------6-----------1-----------3---------------------|
   ×××××××××××××××××××××××××××××××  ~~~~~~~~~~~ ~~~~~~~~~~~ ~~~~~~~~~~~ ~~~~~~~~~~~ ~~~~~~~~~~~ ~~~~~~~~~
 
   D#          F           Gm          Dm          D#          F            Gm
D|--------------------------------------------------------------------------------------------|
A|--------------------------------------------------------------------------------------------|
F|--------------------------------------------------------------------------------------------|
C|-5-----------3-----------5-----------7-----------5-----------3--------3---5-----------------|
G|-6-----------3-----------5-----------5-----------6-----------3--------3---5-----------------|
D|-6-----------1-----------3-----------5-----------6-----------1--------1---3-----------------|
    ~~~~~~~~~~~ ~~~~~~~~~~~ ~~~~~~~~~~~ ~~~~~~~~~~~ ~~~~~~~~~~~ ~~~~~~~~~~~~ ~~~~~~~~~~~~~~~~~
 


trzalica bartrzalica bar

Dodaj komentar


Varnostna koda
Osveži

  Iskanje

config