tablatura akordi besedilo   Samo edini (tab)

trzalica.com besedilo akordi tablature

Legenda ikon:


Pogoji uporabe.    

besedilo z akordi besedilo z akordi
tablature tablatura (tabulatura)
tablature tablatura za bas
tablature videolekcija

GuitarPro GutarPro (GP)
note Note (v PDF formatu)
sibelius Sibelius (SIB), itd.
..

 _______________________________________________________
|                                                       |
| IZVAJALEC: ....................... Siddharta          |
| PESEM: ........................... Samo edini         |
| ALBUM: ........................... NORD               |
| LETO IZIDA: ...................... 2001               |
|_______________________________________________________|
|                                                       |
|         Avtor transkripcije: AliAs                    |
|  Domača stran transkripcije: Trzalica.com             |
|_______________________________________________________|
 
================================================================================================
 
LEGENDA:
        M = MUTE
        / = slide up
        \ = slide down
        ~ = let ring
        p = pull off
        × = palm muted
       ( )= tone ki so v oklepajih ni potrebno udariti
 
================================================================================================
 
INTRO (klavir na kitari): (00:00 - 00:19)
   Am
e|-------17------17-----|-------17------17-----|-------19------19-----|-------20------20-----|
B|----17----17------17--|----18----18------18--|----20----20------20--|----22----22------22--|
G|----------------------|----------------------|----------------------|----------------------|
D|----------------------|----------------------|----------------------|----------------------|
A|-(0)--------(0)-------|-(0)--------(0)-------|-(0)--------(0)-------|-(0)--------(0)-------|
E|----------------------|----------------------|----------------------|----------------------|
            2x                     2x                     2x                     2x
 
 
VERZ 1:  (00:19 - 00:59)
 
      Am
        Vem, da nisem prvi, ki ne zna, 
                   Em
        stopit na divji vrh sveta
                      F                  Am
        in ne bom ta zadn, ki te vid v sanjah.
 
 F     Am
...v sanjah...
e|----------------|
B|----------------|
G|----------------|
D|----------------|
A|----------------|
E|-----------0-5--|
             ×××
 
      Am
        Kolk jih je pred mano dihal zrak 
                        Em
        in kolkim se rodi najlepši otrok,
                      F                     Am
        kolk jih še pride sem za nami v taaa raj.
 
 
Klavir na kitari:  (00:20 - 00:59)
 
   Am                     Em                     F                       Am
e|------12-------12-----|----------------------|-------13-------13-----|---------------------|
B|---13----13-------13--|------12-------12-----|----13----13-------13--|------13------13-----|
G|------------14--------|---12----12-------12--|-------------14--------|---14----14------14--|
D|----------------------|------------14--------|-15--------------------|---------------------|
A|-0--------------------|----------------------|-----------------------|-0----------0--------|
E|----------------------|-0--------------------|-----------------------|---------------------|
            2x                     2x                     2x                     2x
 
   Am                     Em                     F
e|------12-------12-----|----------------------|-------13-------13-----|
B|---13----13-------13--|------12-------12-----|----13----13-------13--|
G|------------14--------|---12----12-------12--|-------------14--------|
D|----------------------|------------14--------|-15--------------------|
A|-0--------------------|----------------------|-----------------------|
E|----------------------|-0--------------------|-----------------------|
            2x                     2x
 
   F                        Am
e|-------13-------13---------------------------17----|
B|----13----13-------13----------13---------13-------|
G|-------------14-------14----14----14---14----------|
D|-15------------------------------------------------|
A|--------------------------0----------0-------------|
E|---------------------------------------------------|
 
 
REFREN 1:  (01:00 - 01:40)
 
      Am         Dm  G           C       F
        Sem pa ediiini, ki nosi najino kri,
                  Dm           G      Am
        jaz sem edini ki tvoj jok umiri.
                  Dm  G           C   F
        Jaz sem ediiini ki ne obstaaaja,
               Dm          G         Am
        ne obstaja  brez tvojega sveta.
 
   Dm   G    C    F    Dm   G    Am
e|-----------------------------------------|
B|-----------------------------------------|
G|-7~~~~-----5~~~~-----7~~~~---------------| --- 2x
D|-7~~~~5~~~~5~~~~3~~~~7~~~~5~~~~7~~~~~~~~-|
A|-5~~~~5~~~~3~~~~3~~~~5~~~~5~~~~7~~~~~~~~-|
E|------3~~~~-----1~~~~-----3~~~~5~~~~~~~~-|
 
 
VERZ 2:  (01:40 - 02:21)
 
      Am
        Vem, da nisem prvi, ki ne spi,
                G
        zarad udarcev in skrbi
                      F                        Am
        in ne bom ta zadn, ki se enkrat ne zbuuudi.
        Drugim sem kazu svoj nasmeh,
                  G
        drugi so vidl solze na tleh.
                   F                       Am
        Drugi so grizl kožo z mene spet in spet.
 
   Am            G           F           Am
e|------------------------------------------------------|
B|------------------------------------------------------|
G|----------------------------------------------5/9~~~~-| --- 2x
D|-5/10~~~5/10~~~5/9~~~5/9~~~3/7~~~3/7~~~5/10~~~5/10~~~-|
A|------------------------------------------------------|
E|------------------------------------------------------|
 
Klavir na kitari:  (01:41 - 02:21)
   Am                     G                       F                       Am
e|------12-------12-----|-----------------------|-------13-------13-----|---------------------|
B|---13----13-------13--|-------12-------12-----|----13----13-------13--|------13------13-----|
G|------------14--------|----12----12-------12--|-------------14--------|---14----14------14--|
D|----------------------|-----------------------|-15--------------------|---------------------|
A|-0--------------------|-10----------10--------|-----------------------|-0----------0--------|
E|----------------------|-----------------------|-----------------------|---------------------|
            2x                     2x                      2x                      2x
 
   Am                     G                       F
e|------12-------12-----|-----------------------|-------13-------13-----|
B|---13----13-------13--|-------12-------12-----|----13----13-------13--|
G|------------14--------|----12----12-------12--|-------------14--------|
D|----------------------|-----------------------|-15--------------------|
A|-0--------------------|-10----------10--------|-----------------------|
E|----------------------|-----------------------|-----------------------|
            2x                     2x
 
   F                        Am
e|-------13-------13----------------17-------17------17-------17-------17-|
B|----13----13-------13----------13-------13-------13------13-------13----|
G|-------------14-------14----14-------14-------14------14-------14-------|
D|-15---------------------------------------------------------------------|
A|--------------------------0---------------------------------------------|
E|------------------------------------------------------------------------|
 
 
REFREN 2:  (02:21 - 02:40)
 
      Am            Dm  G              C          F
        Ampak sem ediiini, ki s tvoje rane liže kri,
                  Dm           G      Am
        jaz sem edini ki tvoj jok umiri.
                  Dm  G           C   F
        In samo ediiini ki ne obstaaaja,
               Dm          G         Am
        ne obstaja  brez tvojega sveta ooeee... 
 
        (Dm G C F Dm G Am)  2x
 
   Dm   G    C    F    Dm   G    Am
e|-----------------------------------------|
B|-----------------------------------------|
G|-7~~~~-----5~~~~-----7~~~~---------------| --- 4x
D|-7~~~~5~~~~5~~~~3~~~~7~~~~5~~~~7~~~~~~~~-|
A|-5~~~~5~~~~3~~~~3~~~~5~~~~5~~~~7~~~~~~~~-|
E|------3~~~~-----1~~~~-----3~~~~5~~~~~~~~-|
 
Saksofon na kitari (poenostavljena verzija): (03:18 - 03:41)
    A                             Dm              G           C                 F
e|----------------------------------------------------------------------------M-|
B|--------15~~~~~13-M-13--M-12-13-12------------------------------------------M-|
G|--12-14-----------------M-----------14--12--------------14--12--------------M-|
D|--------------------------------------------15--14--12----------15--14--12--M-|
A|----------------------------------------------------------------------------M-|
E|----------------------------------------------------------------------------M-|
 
   F                                Dm        G
e|------------------------------------------M--|
B|------------------------------------------M--|
G|---------------12-14--14------------------M--|
D|--------12-14------------14-12----12------M--|
A|--12-15------------------------15----12---M--|
E|------------------------------------------M--|
 
   G                          A
e|-------------------------------------------------------------------------|
B|-------------------------------------------------------------------------|
G|-------------------------------------------------------------------------|
D|--------12-14-12------12-14-12------12-14-12\10----------------12--------|
A|--12-15------------15------------15------------12-12-12-10-12-----12-12--|
E|-------------------------------------------------------------------------|
 
 
OUTRO: (03:42 - 04:40)
Outro sem razdelil na dva dela: Outro part 1:(03:42 - 04:00) in Outro part 2:(04:01 - 04:40)
 
********Outro part 1:(03:42 - 04:00)
   Am                                      3x
e|---------------------------|------------------------------|
B|---------------------------|------------------------------|
G|---------------------------|------------------------------|
D|---------------------------|------------------------------|
A|-0-0-12p0M----0-0-12p0M----|-0-0-12p0M----12M--0-0-12p0M--|
E|---------------------------|------------------------------|
   ×××          ×××            ×××               ×××
 
Klavir na kitari:
   Am
e|-------17------17-----|-------17------17-----|-------19------19-----|-------20------20-----|
B|----17----17------17--|----18----18------18--|----20----20------20--|----22----22------22--|
G|----------------------|----------------------|----------------------|----------------------|
D|----------------------|----------------------|----------------------|----------------------|
A|-(0)--------(0)-------|-(0)--------(0)-------|-(0)--------(0)-------|-(0)--------(0)-------|
E|----------------------|----------------------|----------------------|----------------------|
            2x                     2x                     2x                     2x
 
********Outro part 2:(04:01 - 04:40)
 
      Am
        In vedno več je upanja v ta svet
                          Em
        slišal sem, da z mano hočeš žvet
                   F                       Am
        in s tem edino to življenje dat zaa me.
 
Klavir na kitari:
   Am                     Em                     F                       Am
e|------12-------12-----|----------------------|-------13-------13-----|---------------------|
B|---13----13-------13--|------12-------12-----|----13----13-------13--|------13------13-----|
G|------------14--------|---12----12-------12--|-------------14--------|---14----14------14--|
D|----------------------|------------14--------|-15--------------------|---------------------|
A|-0--------------------|----------------------|-----------------------|-0----------0--------|
E|----------------------|-0--------------------|-----------------------|---------------------|
            2x                     2x                     2x                     2x
 
                        Am*
        Zato sem danes jaz vdihnu zrak,
                  F3*   F*       G*
        danes je moj najlepši otrok, 
            Em*      F*                         Am3*
        in danes zaspim, ker jutr s tabo se zbudim.
 
   Am*      F3*  F*   G*   Em*  F*       Am3*
e|-5~~~~~~~~5~~~~1~~~~3~~~~0~~~~1~~~~~~~~8~~~~~~~~-|
B|-5~~~~~~~~6~~~~1~~~~0~~~~0~~~~1~~~~~~~~10~~~~~~~-|
G|-5~~~~~~~~5~~~~2~~~~0~~~~0~~~~2~~~~~~~~9~~~~~~~~-|
D|-7~~~~~~~~7~~~~3~~~~0~~~~2~~~~3~~~~~~~~7~~~~~~~~-|
A|-7~~~~~~~~8~~~~3~~~~2~~~~2~~~~3~~~~~~~~0~~~~~~~~-|
E|-5~~~~~~~~-----1~~~~3~~~~0~~~~1~~~~~~~~----------|
 


trzalica bartrzalica bar

Dodaj komentar


Varnostna koda
Osveži

  Iskanje

config