tablatura akordi besedilo   Siddharta (tab)

trzalica.com besedilo akordi tablature

Legenda ikon:


Pogoji uporabe.    

besedilo z akordi besedilo z akordi
tablature tablatura (tabulatura)
tablature tablatura za bas
tablature videolekcija

GuitarPro GutarPro (GP)
note Note (v PDF formatu)
sibelius Sibelius (SIB), itd.
..

Vse verzije te pesmi:      Siddharta (tab)       Siddharta (gp) v1       Siddharta (gp) v2

trzalica bar

 _______________________________________________________
|                                                       |
| IZVAJALEC: ................................ Siddharta |
| PESEM: .................................... Siddharta |
| ALBUM: .................................... ID        |
| LETO IZIDA: ............................... 1999      |
|_______________________________________________________|
|                                                       |
|  Avtor transkripcije: AliAs                           |
|  Domača stran transkripcije: Trzalica.com             |
|  Datum nastanka transkripcije: 5.6.2007               |
|_______________________________________________________|
 
========================================================================================================
 
LEGENDA ZNAKOV:
M = MUTE
× = palm muted
X = muffled
p = pull off
h = hammer on
/ = slide up
\ = slide down
b = bend up za 1/2 tona
r = release bend
v = vibrated
... = nadaljevanje pickinga
 
Kitara 1 = Tomi
Kitara 2 = Primož
 
========================================================================================================
www.trzalica.com    www.trzalica.com    www.trzalica.com    www.trzalica.com    www.trzalica.com
========================================================================================================
 
INTRO:  (00:00 - 00:20)
 
Kitara 1:
   Esus4
e|---0---------0-----0---------0-----0---------0-------0-------0-----|
B|--0----0---0---0---0---0---0---0---0---0---0---0---0---0---0---0---|
G|-2-------2-------2-------2-------2-------2-------2-------2-------2-|
D|-------------------------------------------------------------------|
A|-------------------------------------------------------------------|
E|-------------------------------------------------------------------|
 
Kitara 2:
e|------------------------------|
B|--------12h13---13--12--------|
G|--------12----------12--------|
D|------------------------------|
A|------------------------------|
E|------------------------------|
 
Obe kitari:
   Em                         C             D
e|-0----0-0-0-0--0--0-0-0-0-0-0--0-0-0--0-0-2--2-2-2-2---|
B|-0----3-3-3-3--1--0-1-1-1-0-1--3-3-3--3-3-3--3-3-3-3---|
G|-0----0-0-0-0--0--0-0-0-0-0-0--0-0-0--0-0-2--2-2-2-2---|  -- 2x
D|-2----2-2-2-2--2--2-2-2-2---2--2-2-2--2-2-0--0-0-0-0---|
A|-2----2-2-2-2--2--2-2-2-2---3--3-3-3--3-3-0--0-0-0-0---|
E|-0----0-0-0-0--0--0-0-0-0------------------------------|
 
 
VERZ 1:  (00:20 - 00:48)
 
                 Em
        Skrit v morju,
               C            D
        potopljen v svet Dalantika
                    Em
        je klan "malih ljudi"
                  C         D
        sklenil svoja verovanja,
 
Kitara 2:
e|---------------------------------------------------------|
B|---------------------------------------------------------|
G|-12-11-9-----------------12-11-9-------------------------|  -- 2x
D|---------12-9-9------------------12-10-10---10-/12-12----|
A|---------------------------------------------------------|
E|---------------------------------------------------------|
 
                      Em
        koder naj se vidi,
                C          D
        naj se vidi smeh ujet
                      Em
        med utopije utrganih pojav
                   C         D
        in ideje kvazi velikih ljudi.
 
Kitara 1:
   Em                         C             D
e|-0----0-0-0-0--0--0-0-0-0-0-0--0-0-0--0-0-2--2-2-2-2---|
B|-0----3-3-3-3--1--0-1-1-1-0-1--3-3-3--3-3-3--3-3-3-3---|
G|-0----0-0-0-0--0--0-0-0-0-0-0--0-0-0--0-0-2--2-2-2-2---|  -- 2x
D|-2----2-2-2-2--2--2-2-2-2---2--2-2-2--2-2-0--0-0-0-0---|
A|-2----2-2-2-2--2--2-2-2-2---3--3-3-3--3-3-0--0-0-0-0---|
E|-0----0-0-0-0--0--0-0-0-0------------------------------|
 
Kitara 2:
e|------------------------------------------------|
B|------------------------------------------------|
G|------------------------------------------------|  -- 2x
D|-9-7-9-7---------------9-7-9-7------------------|
A|---------10-7------------------10-7---7--9-9----|
E|------------------------------------------------|
   ××××××××              ××××××××
 
 
PREHOD V VERZ 2:  (00:48 - 01:02)
 
Kitara 1:
   Em                           C              D
e|-0--0-0-0-0-0-0--0--0-0-0-0-0-0--0-0-0-0-0-0-2--2-2-3-2-2-2-|
B|-0--0-0-3-3-3-3--1--0-1-1-1-0-1--3-3-3-3-3-3-3--3-3-3-3-3-3-|
G|-0--0-0-0-0-0-0--0--0-0-0-0-0-0--0-0-0-0-0-0-2--2-2-2-2-2-2-|  -- 2x
D|-2--2-2-2-2-2-2--2--2-2-2-2---2--2-2-2-2-2-2-0--0-0-0-0-0-0-|
A|-2--2-2-2-2-2-2--2--2-2-2-2---3--3-3-3-3-3-3-0--0-0-0-0-0-0-|
E|-0--0-0-0-0-0-0--0--0-0-0-0---------------------------------|
 
Kitara 2:
e|----------------------------------------------------------|
B|-7h8-8--7h8-8-7-5-----------------------------7---7/8\7v--|
G|-7----------------4-5/7\5-4-5--9-9-9\7-7-5-7----7---------|
D|----------------------------------------------------------|
A|----------------------------------------------------------|
E|----------------------------------------------------------|
 
e|--------------------------------------------------------------|
B|-7h8-8--7h8-8-7-5-----------------------------7---7/8\7/8\7-8-|
G|-7----------------4-5/7\5-4-5--9-9-9\7-7-5-7----7-------------|
D|--------------------------------------------------------------|
A|--------------------------------------------------------------|
E|--------------------------------------------------------------|
 
 
VERZ 2:  (01:02 - 01:54)
 
               Em
        Sliši se lepo:
               C            D
        druga duša, isti material,
               Em
        vsaka roka, lice in telo,
               C             D
        vsaka pamet gre v nebo,
 
Kitara 2:
e|---------------------------------------------------------|
B|---------------------------------------------------------|
G|-12-11-9-----------------12-11-9-------------------------|  -- 2x
D|---------12-9-9------------------12-10-10---10-/12-12----|
A|---------------------------------------------------------|
E|---------------------------------------------------------|
 
                      Em
        ko se nemir ovija,
                    C            D
        ko se mir ubija vsem zaznamovanim
                Em
        in le "pes" na steni bo ostal,
               C             D
        nekaj let, ljudi zaznamoval.
                Em
        Naj se vidi,
                C          D
        naj se vidi Svet ujet
                      Em
        med iluzije strganih pojav
                  C                  D
        in idejo Bog, v kar naj bi veroval,
                Em
        naj se vidi,
                C            D
        naj se vidi v srcu "malih",
                Em
        ne na steni.
 
Kitara 1:
                           5x
   Em                         C             D              Em
e|-0----0-0-0-0--0--0-0-0-0-0-0--0-0-0--0-0-2--2-2-2-2---|-0--0--0-0----|
B|-0----3-3-3-3--1--0-1-1-1-0-1--3-3-3--3-3-3--3-3-3-3---|-0--0--0-0----|
G|-0----0-0-0-0--0--0-0-0-0-0-0--0-0-0--0-0-2--2-2-2-2---|-0--0--0-0----|
D|-2----2-2-2-2--2--2-2-2-2---2--2-2-2--2-2-0--0-0-0-0---|-2--2--2-2----|
A|-2----2-2-2-2--2--2-2-2-2---3--3-3-3--3-3-0--0-0-0-0---|-2--2--2-2----|
E|-0----0-0-0-0--0--0-0-0-0------------------------------|-0--0--0-0----|
 
Kitara 2:
                        2x
e|------------------------------------------------|
B|------------------------------------------------|
G|------------------------------------------------|
D|-9-7-9-7---------------9-7-9-7------------------|
A|---------10-7------------------10-7---7--9-9----|
E|------------------------------------------------|
   ××××××××              ××××××××
 
                          2x
e|------------------------------------------------|----------------------|
B|------------------------------------------------|----------------------|
G|------------------------------------------------|----------------------|
D|-9-7-9-7---------------9-7-9-7------------------|-9-7-9-7--------------|
A|---------10-7------------------10-7---7--9-9----|---------10-7---------|
E|------------------------------------------------|----------------------|
 
 
PRE-SOLO:  (01:54 - 02:25)
 
Kitara 1:
   Em                              Em                   C
e|---------------------------------------------------------------------------|
B|---------------------------------------------------------------------------|
G|------------------2--------------------------------------------------------|
D|---------2--4--5----4-2--0--4--5-2----4--5----2-4--5--2----4--5----2-4--5--|
A|-------3-------------------------------------------------------------------|
E|-12\-----------------------------------------------------------------------|
                                     M       M            M       M
 
   D                    Em                    Em                     C
e|------------------------------------------------------------------------------------------|
B|------------------------------------------------------------------------------------------|
G|------4-----------------------------------------------------------------------------------|
D|-0-------0----4-5--7------------------------------7--9-------7--9--------7--9-------7--9--|
A|----------------------7----9--7-----7-9--7--10------------10-------10------------10-------|
E|------------------------------------------------------------------------------------------|
     M       M            M       M              M       M              M       M
 
   D                       Em
e|-----------------------------------------------------------------|
B|-----------------------------------------------------------------|
G|-----------------------------------12-------12-----12-------12-\-|
D|-7----9--10----7-9--10--/14--14-14----14-14-----14----14-14----\-|
A|-----------------------------------------------------------------|
E|-----------------------------------------------------------------|
     M        M 
 
Kitara 2:
   Em                                  Em
e|------------------------------------------------------------|
B|---13-12--10------------------------------------------------|
G|--------------12-11-9-11------11--12-9----------------------|
D|--------------------------12--------------------------------|
A|------------------------------------------9--10----7-9--10--|
E|------------------------------------------------------------|
                                         M        M
 
   C                      D                      Em
e|------------------------------------------------------------------------------------------------|
B|------------------------------------------------------------------------------------------------|
G|------------------------------------------------------------------------------------------------|
D|---------------------------------7----------7---------------------------------------------------|
A|-7----9--10----7-9--10--9----10-------9-10-----7----9--7-----------------7----9--10----7-9--10--|
E|----------------------------------------------------------7-7-0-3-0-10-0------------------------|
     M        M             M        M             M        ××××××××××××××   M        M           
 
   C                      D                       Em
e|--------------------------------------------------------------------------------|
B|--------------------------------------------------------------------------------|
G|--------------------------------------------------------------------------------|
D|---------------------------------7-----------7--9-9-9-9-9-9-9-9-9-9-9-9-9-9-9-9-|
A|-7----9--10----7-9--10--9----10-------9--10-------------------------------------|
E|--------------------------------------------------------------------------------|
     M        M             M        M
 
 
SOLO 1:  (02:26 - 03:07)
 
Kitara 1:
    Em                                       C
e|-------------------------------------------------------------------------------------|
B|-------------------------------------------------------------------------------------|
G|-\9---9-11----11-12----12-11--12-11-h12p11-9---9-11----11-12----12---11-12-11h12p11p-|
D|----9-------9--------9-----------------------9-------9--------9----9-----------------|
A|-------------------------------------------------------------------------------------|
E|-------------------------------------------------------------------------------------|
 
   D
e|-------------------------------------------------------|
B|-------------------------------------------------------|
G|-9h11p9--9h11p9----9----9-9/11----11/12----12/14-------|
D|-------12------12----12--------12-------12--------12---|
A|-------------------------------------------------------|
E|-------------------------------------------------------|
 
   Em
e|-----------------------------------------------------|
B|-----------------------------------------------------|
G|-/16-16-16-16-14-14-14-14-14\12-12-12-11---999-------|
D|----------------------------------------------121212-|
A|-----------------------------------------------------|
E|-----------------------------------------------------|
 
   Em
e|---------------------------------------------------------|
B|---------------------------------------------------------|
G|-9--9-11b-9---9-9-9----------9--9-11b-9---9-9-9----------|
D|--------------------12-12-12--------------------12-12-12-|
A|---------------------------------------------------------|
E|---------------------------------------------------------|
 
   C
e|-------------------------------------------------------|
B|-------------------------------------------------------|
G|-9--9-11b-9---9-9-9----------9--9-11b-9---9-9-9--------|
D|--------------------12-12-12--------------------12-12\-|
A|-------------------------------------------------------|
E|-------------------------------------------------------|
 
   D
e|--------------------------------------------------------|
B|-----------------5-----5--7--5-7-8--7-8-10--8-10-12-10--|
G|---------4-5-7------7-----------------------------------|
D|-0-2-4-5------------------------------------------------|
A|--------------------------------------------------------|
E|--------------------------------------------------------|
 
   Em
e|-10--12--12--12--12----12----12--12----12----12--12----12----10---|
B|------------------------------------------------------------------|
G|------------------------------------------------------------------|
D|------------------------------------------------------------------|
A|------------------------------------------------------------------|
E|------------------------------------------------------------------|
 
 
   Em                                        C
e|-12---12---10-12---12------12---10-12---10-12---12---10-12---10-12---12---10-12---10-|
B|-------------------------------------------------------------------------------------|
G|----9----9-------9-------9----9-------9-------9----9-------9-------9----9-------9----|
D|-------------------------------------------------------------------------------------|
A|-------------------------------------------------------------------------------------|
E|-------------------------------------------------------------------------------------|
 
   D                                         Em
e|-12---12---10-12---10-12---12---10-12---10-12---10-12---10-12---10-12---10-12---12----|
B|--------------------------------------------------------------------------------------|
G|----9----9-------9-------9----9-------9-------9-------9-------9-------9-------9-------|
D|--------------------------------------------------------------------------------------|
A|--------------------------------------------------------------------------------------|
E|--------------------------------------------------------------------------------------|
 
Kitara 2:
   Em                                 C                                 
e|-----------------------------------------------------------------------|
B|-----------------------------------------------------------------------|      \
G|-9--9-9-11111112--12-12-9-111112-12-9--9-9-11111112--12-12-9-111112-12-|       \
D|-----------------------------------------------------------------------|        \
A|-7--7-7-9-9-9-10--10-10-7-9-9-10-10-7--7-7-9-9-9-10--10-10-7-9-9-10-10-|         \
E|-----------------------------------------------------------------------|          \
                                                                                     \
   D                                       Em                                         \__ 3x
e|------------------------------------------------------------------------------|     /
B|------------------------------------------------------------------------------|    /
G|-11-111112-12-12-14--14-14-1112-12-14-14--------------------------------------|   /
D|-----------------------------------------7------------------------------------|  /
A|-9--9-9-10-10-10-12--12-12-9-10-10-12-12---10-9-10-9-7-9-7-9-7----7-----------| /
E|---------------------------------------------------------------10---10-9-10-9-|
                                           ××××××××××××××××××××××××××××××××××××
 
 
PREHOD V SOLO 2:  (03:08 - 03:24)
 
Kitara 1:
                3x
   Em                                Em                              D
e|---------------------------------|------------------------------------------------------|
B|-8-----8-7-----7-----------------|-8-----8-7-----7--------------------------------------|
G|---9-------9-----9-----9-7-------|---9-------9-----9-----9-7-------7--------------------|
D|-----9-------9-----9---------9---|-----9-------9-----9---------9------------------------|
A|---------------------7-----7---7-|---------------------7-----7---7----------------------|
E|---------------------------------|------------------------------------------------------|
  ××××××××××××××××××××××××××××××××× ××××××××××××××××××××××××××××××××
 
Kitara 2:
              4x
   Em                        D
e|-------------------------|------------------------|
B|-------------------------|------------------------|
G|-------------------------|-7-------7-7----7--7----|
D|-2----2----2--2----2--2--|-7-------7-7----7--7----|
A|-2----2----2--2--2-2--2--|-5-------5-5----5--5----|
E|-0----0----0--0--0-0--0--|------------------------|
     M    M   M  M ×  M  M
 
 
SOLO 2:  (03:25 - 03:52)
 
Kitara 1:
  (D) Em                D             Am                  Em
e|-----------------------------------------------------------------------|
B|-----------------------------------------------------------------------|
G|-7-/9-9-9-7------------------------------------------------------------|
D|------------9--7------7-----------7-9/10-10-9-7------------------------|
A|------------------10---------7-10----------------10--9--9h10p9\7-------|
E|-----------------------------------------------------------------------|
 
       Em                D                 Am                  Em
e|---------------------------------------------------------------------|
B|---------------------------------------------------------------------|
G|---7-9---9-7---------------------------------------------------------|
D|-9-----9-----9--7------7h9p7-----------7-9/10-10-9-7-----------------|
A|-------------------10-------------7-10----------------10--9-\7-------|
E|---------------------------------------------------------------------|
 
       Em               D                  Am                      Em
e|-----------------------------------------------------------------------------------|
B|-----------------------------------------------------------------------------------|
G|---7-9v--9v--9v----9v-9/11v---11v----11v-11/12v---12v--12v---12v-12/14v---14v------|
D|-9---------------------------------------------------------------------------------|
A|-----------------------------------------------------------------------------------|
E|-----------------------------------------------------------------------------------|
 
        Em                      D                   Am                       Em
e|------12-12-12----------------------------------------------------------------------|
B|-0-15----------15--12---------------------------------------------------------------|
G|-----------------------14--12-14----12---11---12--11h12p11\9--/11---9---7-/9-------\|
D|------------------------------------------------------------------------------------|
A|------------------------------------------------------------------------------------|
E|------------------------------------------------------------------------------------|
 
Kitara 2:
   Em              D               A               Em
e|-----------------------------------------------------------------|
B|-----------------------------------------------------------------|
G|-----------------7---7-7---7-7-----------------------------------|  -- 4x
D|-2---2-2---2-2---7---7-7---7-7---7---7-7---7-7---2---2-2---2-2---|
A|-2---2-2---2-2---5---5-5---5-5---7---7-7---7-7---2---2-2---2-2---|
E|-0---0-0---0-0-------------------5---5-5---5-5---0---0-0---0-0---|
 
 
ZAKLJUČNI SOLO:  (03:53 - 04:20)
 
Kitara 1:
   Em                                C
e|-----------------------------------------------------------------------|
B|---------7-b-r----------7-b-r------------------------------------------|
G|-9---7-9------------7-9--------7/9----9-11-11-b-r-------9-11-11-b-r--9-|
D|---9--------------9----------------10----------------10----------------|
A|-----------------------------------------------------------------------|
E|-----------------------------------------------------------------------|
   ×××××××          ×××××            ×××××××           ×××××××
 
   D                                              Em
e|--------------------------------------------------------------------------------|
B|--------------------------------------------------------------------------------|
G|-11-11-11-12-12-14-14-14-14-12-11-12-11h12p11\9-11---9-9----------/11-/12-------|
D|--------------------------------------------------------------------------------|
A|--------------------------------------------------------------------------------|
E|--------------------------------------------------------------------------------|
 
   Em
e|-12-15--14--15--14h15p14p12\10--------------------------------------|
B|-12---------------------------12v----10--\8--7--h8p7p5\3-5v---------|
G|--------------------------------------------------------------------|
D|--------------------------------------------------------------------|
A|--------------------------------------------------------------------|
E|--------------------------------------------------------------------|
 
Kitara 2:
   Em                             C                              D                               Em
e|--------------------------------------------------------------------------------------------------------|
B|--------------------------------------------------------------------------------------------------------|
G|--------------------------------------------------------------------------------------------------------|
D|---------4-b-r---------4-b-r-------------------------------------0-0-0-9-0-0-0-7-0-0-0-5-0-0-2/4---\2---|
A|-7---5-7-----------5-7--------5-7---7-9-9-b-r-----7-9-9-b-r--7-9----------------------------------------|
E|---7-------------7----------------8-------------8-------------------------------------------------------|
   ×××××××         ×××××            ×××××         ×××××            ×××××   ×××××   ×××××   ×××
 
   Em
e|-0----------------0-------0------------------0---------0---0------|
B|-0--------------0-------0------0-------------0---------0------0---|
G|-0------------0-------0----------0-----------0---------0--------0-|
D|-2----------2--------------------------------2---------2----------|
A|-2-------------------------------------------2---------2----------|
E|-0-------------------------------------------0---------0----------|
 
 
VERZ 3:  (04:21 - 05:02)
 
      Em
        O, hej, hej, hej, ti v črnem,
      C               D
        verjameš ali ne, ti boš strah popil.
      Em
        In hej, hej, hej, ti zeleni,
      C                D
        s ponosom in srečo te bodo zbil.
 
Kitara 1:
   Em                         C             D
e|-0----0-0-0-0--0--0-0-0-0-0-0--0-0-0--0-0-2--2-2-2-2---|
B|-0----3-3-3-3--1--0-1-1-1-0-1--3-3-3--3-3-3--3-3-3-3---|
G|-0----0-0-0-0--0--0-0-0-0-0-0--0-0-0--0-0-2--2-2-2-2---|  -- 2x
D|-2----2-2-2-2--2--2-2-2-2---2--2-2-2--2-2-0--0-0-0-0---|
A|-2----2-2-2-2--2--2-2-2-2---3--3-3-3--3-3-0--0-0-0-0---|
E|-0----0-0-0-0--0--0-0-0-0------------------------------|
 
      Em
        In hej, hej, hej, ti v belem,
      C                    D
        si sploh kdaj razumel, kar si drugim pel.
      Em                         C              D
        In hej, hej, hej, le do kam pelje tale cesta,
                    Em
        kje so meje?
                  C             D
        Saj je dovolj že to da mali
                      Em
        nima pojma, kje in kdaj nocoj bo spal
                          C        D             >Em...
        in če bo jutri vstal; pa naj te paranoja davi...
 
Kitara 1:
   Em                           C              D
e|-0--0-0-0-0-0-0--0--0-0-0-0-0-0--0-0-0-0-0-0-2--2-2-2-2-2-2-|
B|-0--0-0-3-3-3-3--1--0-1-1-1-0-1--3-3-3-3-3-3-3--3-3-3-3-3-3-|
G|-0--0-0-0-0-0-0--0--0-0-0-0-0-0--0-0-0-0-0-0-2--2-2-2-2-2-2-|  -- 4x
D|-2--2-2-2-2-2-2--2--2-2-2-2---2--2-2-2-2-2-2-0--0-0-0-0-0-0-|
A|-2--2-2-2-2-2-2--2--2-2-2-2---3--3-3-3-3-3-3-0--0-0-0-0-0-0-|
E|-0--0-0-0-0-0-0--0--0-0-0-0---------------------------------|
 
Kitara 2:
e|------------------------------------------------|
B|------------------------------------------------|
G|------------------------------------------------|  -- 2x
D|-9-7-9-7---------------9-7-9-7------------------|
A|---------10-7------------------10-7---7--9-9----|
E|------------------------------------------------|
   ××××××××              ××××××××
 
e|------------------------------------------------------------------------|
B|------------------------------------------------------------------------|
G|------------------------------------------------------------------------|
D|-9-7-9-7---------------------9-7-9-7-------------------9-7-9-7----------|
A|---------10-7-----7-9-7-9-7----------10-7---7--9-9-------------10-7-----|
E|------------------------------------------------------------------------|
 
e|----------------------------------------------|
B|----------------------------------------------|
G|---9-X-9-X-9-X-9-/11-11-11/12--12-------------|
D|-----X---X---X--------------------------------|
A|-7-7-X-7-X-7-X-7-/9--9--9-/10--10--7/9--------|
E|-----X---X---X--------------------------------|
 
 
OUTRO VERZ:  (05:02 - 05:23)
 
                  ...Em
        ...paranoja davi,
                  C          D
        paranoja davi in utopi,
                    Em
        zakaj ubijali so,
              C          D      Em
        ubijali so le povabljene.
             C       D
        eeeeeeeeeeeeeeee
 
Obe kitari:
   Em                          C             D
e|---------------------------------------------------------|
B|---------------------------------------------------------|
G|-----------------------------5-------5--5--7-------7--7--|  -- 3x
D|-2-------2-----2-------2--2--5---5-5-5--5--7---7-7-7--7--|
A|-2---2-2-2---2-2---2-2-2--2--3---3-3-3--3--5---5-5-5--5--|
E|-0---0-0-0---0-0---0-0-0--0------------------------------|
       ×××     ×     ×××           ×××           ×××
 
 
OUTRO:  (05:23 - 06:30)
 
Kitara 1:
e|---------------------------------------------------------------|
B|---------------------------------------------------------------|
G|-5/9---9-9-9-9-9-7---9-9-7-9-9-9-9-9-9-9-9-9-9-9-9-9-9-9-9-...-|
D|---------------------------------------------------------------|
A|-3/7---7-7-7-7-7-7---7-7-7-7-7-7-7-7-7-7-7-7-7-7-7-7-7-7-7-...-|
E|---------------------------------------------------------------|
                                                                                        ___________________
e|-------------------------------------------------------------------------------------|Od tu naprej
B|-------------------------------------------------------------------------------------|tablatura nakazuje
G|-...9---11--12---14---12---14---12---14--------12--------14---16---17------21--------|samo prijeme, za
D|-------------------------------------------------------------------------------------|število udarcev
A|-...7---9---10---12---10---12---10---12--------10--------12---14---15------19--------|posameznega prijema
E|-------------------------------------------------------------------------------------|pa poslušaj pesem.
                                                                                            
e|--------------------------------------------------------------------------------------------------------|
B|-----------------------------------------------------------------20-------22--------13--12-13-14//22----|
G|-19---21---19---21------19-----14-----18---16---18---16--18-16------------------------------------------|
D|-----------------------------------------------------------------17-------19--------11--9--10-11//18----|
A|-17---19---17---19------17-----12-----16---14---16---14--16-14------------------------------------------|
E|--------------------------------------------------------------------------------------------------------|
 
Kitara 2:
   Em                          C             D
e|---------------------------------------------------------|
B|---------------------------------------------------------|
G|-----------------------------5-------5--5--7-------7--7--|  -- 8x
D|-2-------2-----2-------2--2--5---5-5-5--5--7---7-7-7--7--|
A|-2---2-2-2---2-2---2-2-2--2--3---3-3-3--3--5---5-5-5--5--|
E|-0---0-0-0---0-0---0-0-0--0------------------------------|
       ×××     ×     ×××           ×××           ×××
 
   Em
e|------------------|
B|------------------|
G|------------------|
D|-2----------------|
A|-2----------------|
E|-0----------------|
 


trzalica bartrzalica bar

Dodaj komentar


Varnostna koda
Osveži

  Iskanje

config