tablatura akordi besedilo   Sim hae (tab)

trzalica.com besedilo akordi tablature

Legenda ikon:


Pogoji uporabe.    

besedilo z akordi besedilo z akordi
tablature tablatura (tabulatura)
tablature tablatura za bas
tablature videolekcija

GuitarPro GutarPro (GP)
note Note (v PDF formatu)
sibelius Sibelius (SIB), itd.
..

 _______________________________________
|                                       |
| IZVAJALEC: ................ Siddharta |
| PESEM: ...................... Sim hae |
| ALBUM: .......................... Rh- |
|_______________________________________|
|                                       |
|   Transkripcija: AliAs                |
|   Domača stran: Trzalica.com          |
|_______________________________________|
 
================================================================================================
 
LEGENDA:
M = MUTE
× = palm muted
X = muffled
/ = slide up
\ = slide down
~ = let ring
p = pull off
h = hammer on
fr = bend up za cel ton, nato popusti bend
br = bend up za pol tona, nato popusti bend
 
================================================================================================
www.trzalica.com    www.trzalica.com    www.trzalica.com    www.trzalica.com    www.trzalica.com
================================================================================================
 
INTRO & VERZ 1:  (00:00 - 01:06)
 
   Intro: (Am  F) 2x
 
   Verz 1:
   Am                                   F
e|---------------------------------------------------------------------------|
B|----------1-----0------------------------------1-----0---------------------|
G|-------2--------------2---------------------2--------------2---------------|
D|-0--2--------2-----2-----2------------2--3--------3-----3-----3------------|
A|---------------------------------------------------------------------------|
E|---------------------------------------------------------------------------|
 
      Am
        Brez sape brez srca ubita
             F
        le gledaš nekam stran,
      Am
        tvoja moč in veselje, tvoj um
              F
        so izginl čist drugam.
               Am                F
        Sim hae, sim hae, sim hae, sim hae, sim
      Am
        Ta smeh ki ga rišeš za druge
           F
        popolnoma zlagan,
      Am
        in ta svet bil je tvoj
                            F
        zdaj pa nema kot stroj
        tam v kotu ne veš kod in kam.
 
 
REFREN 1:  (01:06 - 01:25)
      F           G         Cm
        Ni pameti in strastiiii,
                      G#
        ko padaš z nebaaaa,
      Fm             A#        G# G
        in ni pameti in strastiiii,
                  F
        kadar te ni.
 
   F          G          Cm         G#
e|-------------------------------------------|
B|-------------------------------------------|
G|-------------------------------------------|
D|-3---3--3---5---5--5---5---5--5---6---6--6-|
A|-3---3--3---5---5--5---3---3--3---6---6--6-|
E|-1---1--1---3---3--3---3---3--3---4---4--4-|
 
   Fm         A#     G# G          F
e|---------------------------------------------|
B|---------------------------------------------|
G|------------3---3-----------------------2----|
D|-3---3--3---3---3--6--5---5--5---3----3------|
A|-3---3--3---1---1--6--5---5--5---3--3--------|
E|-1---1--1----------4--3---3--3---1-----------|
                                              M
 
VERZ 2:  (01:26 - 02:05)
      Am
        Res bil je strah,
                  F
        bil je ples,
        blo je vse kar si hotela
                   Am
        in blo je več kot to,
                              F
        samo neki je šlo povsem drugam,
                            Am
        in kdo je kriv ne vem,
        a prah ti bo ponos prekril,
               F
        tale prah v sivo spremenil,
            Am
        in ne gre iz mene
                               F
        k spomnim se tvojih besed
        nobenmu se ne pustim zatret.
 
 
REFREN 2:  (02:05 - 02:25)
      F           G         Cm
        Ni pameti in strastiiii,
                      G#
        ko padaš z nebaaaa,
      Fm             A#        G# G
        in ni pameti in strastiiii,
                  F
        kadar te ni.
 
   F          G          Cm         G#
e|-------------------------------------------|
B|-------------------------------------------|
G|-------------------------------------------|
D|-3---3--3---5---5--5---5---5--5---6---6--6-|
A|-3---3--3---5---5--5---3---3--3---6---6--6-|--\
E|-1---1--1---3---3--3---3---3--3---4---4--4-|   \
                                                  \__ Tudi med solom!
   Fm         A#     G# G          F              /
e|------------------------------------------|    /
B|------------------------------------------|---/
G|------------3---3-------------------------|
D|-3---3--3---3---3--6--5---5--5---3---3--3-|
A|-3---3--3---1---1--6--5---5--5---3---3--3-|
E|-1---1--1----------4--3---3--3---1---1--1-|
 
 
SOLO:  (02:23 - 02:47)
te niiiiiiiii
   F                              G                                 Cm
e|------------------------------------------------------------------------|
B|-13~~~~~~~~13--------------13---15--13-15-13--12-13-12--10-12-10--------|
G|--------------------12-14-----------------------------------------12----|
D|-----------------15-----------------------------------------------------|
A|------------------------------------------------------------------------|
E|------------------------------------------------------------------------|
 
                               G#                                              Fm
e|-----------------------------------------------------------------------------16-----|
B|-------13-----13-15p13-15-16-18p16-18p16-18p16-18p16-18p16\15h16-18p16\15h16--------|
G|-12-14-----14-----------------------------------------------------------------------|
D|------------------------------------------------------------------------------------|
A|------------------------------------------------------------------------------------|
E|------------------------------------------------------------------------------------|
 
                                    A#                           G#        G
e|-15-16-15h16p15-------------------------------------------------------------------------------------|
B|----------------16-18-16-15-16-15-16fr---15-16-15h16p15-13h15br---13-15-16-15-13-15-13h15p13\12~~~~-|
G|----------------------------------------------------------------------------------------------------|
D|----------------------------------------------------------------------------------------------------|
A|----------------------------------------------------------------------------------------------------|
E|----------------------------------------------------------------------------------------------------|
 
          F
e|-------------------------------------------|
B|-15p13-15p13-12h13-12h13p12\10~~~~~~~~~~~~~|
G|-------------------------------------------|
D|-------------------------------------------|
A|-------------------------------------------|
E|-------------------------------------------|
 
 
VERZ 3:  (02:45 - 03:16)
      Am               F                Am
        Nazaj prihaja um (jo barva sproti),
                    F                 G
        vliva ji pogum (na boljši poti),
                       F
        vsa prevreta kri,
        se že na ledu hladi.
 
 
BRIDGE:  (03:17 - 03:36)
      G#          A#         D#m
        Ni pameti in strastiiii,
                       B
        ko padaš z nebaaaaaa,
      G#m            C#          B  A#
        in ni pameti in strasti,
                  G#
        kadar te ni.
 
REFREN 3:  (03:36 - 04:42)
      G#          A#              D#m
        Ni pameti in strastii jeeea,
                       B
        ko padaš z nebaaaaaa,
      G#m            C#          B  A#
        in ni pameti in strasti jeeea,
                  G#
        kadar te ni.
 
      G#
        In veš kolk,
                A#
        tvoj objem..
              Cm
        in dotik..
                   G#             Fm
        je vse to res ali se mi zdi,
                A#         Cm
        in ta svet ni več nem,
                   G#        Fm
        me v nove sanje potopi,
                A#
        tvoj objem..
              Cm
        in dotik..
                   G#         Fm
        kar ne verjamem da letim,
                   A#        G# G        Fm
        kaj vse v čudež spremeeni, tvoj ooobjem.
 
   G#              A#              D#m             B
e|-----------------------------------------------------------------|
B|-----------------------------------------------------------------|
G|-----------------------------------------------------------------|
D|-6-6-6-6-6-6-6-6-8-8-8-8-8-8-8-8-8-8-8-8-8-8-8-8-9-9-9-9-9-9-9-9-|
A|-6-6-6-6-6-6-6-6-8-8-8-8-8-8-8-8-6-6-6-6-6-6-6-6-9-9-9-9-9-9-9-9-|
E|-4-4-4-4-4-4-4-4-6-6-6-6-6-6-6-6-6-6-6-6-6-6-6-6-7-7-7-7-7-7-7-7-|
 
   G#m             C#        B     A#              G#
e|-----------------------------------------------------------------|
B|-----------------------------------------------------------------|
G|-----------------6-6-6-6-6---------------------------------------|
D|-6-6-6-6-6-6-6-6-6-6-6-6-6-9-9-9-8-8-8-8-8-8-8-8-6-6-6-6-6-6-6-6-|
A|-6-6-6-6-6-6-6-6-4-4-4-4-4-9-9-9-8-8-8-8-8-8-8-8-6-6-6-6-6-6-6-6-|
E|-4-4-4-4-4-4-4-4-----------7-7-7-6-6-6-6-6-6-6-6-4-4-4-4-4-4-4-4-|
 
 
   G#              A#              Cm              G#
e|-----------------------------------------------------------------|
B|-----------------------------------------------------------------|
G|---------------------------------5-5-5-5-5-5-5-5-----------------|
D|-6-6-6-6-6-6-6-6-8-8-8-8-8-8-8-8-5-5-5-5-5-5-5-5-6-6-6-6-6-6-6-6-|
A|-6-6-6-6-6-6-6-6-8-8-8-8-8-8-8-8-3-3-3-3-3-3-3-3-6-6-6-6-6-6-6-6-|
E|-4-4-4-4-4-4-4-4-6-6-6-6-6-6-6-6-----------------4-4-4-4-4-4-4-4-|
 
   Fm              A#              Cm              G#
e|-----------------------------------------------------------------|
B|-----------------------------------------------------------------| --2x
G|-----------------3-3-3-3-3-3-3-3-5-5-5-5-5-5-5-5-----------------|
D|-3-3-3-3-3-3-3-3-3-3-3-3-3-3-3-3-5-5-5-5-5-5-5-5-6-6-6-6-6-6-6-6-|
A|-3-3-3-3-3-3-3-3-1-1-1-1-1-1-1-1-3-3-3-3-3-3-3-3-6-6-6-6-6-6-6-6-|
E|-1-1-1-1-1-1-1-1---------------------------------4-4-4-4-4-4-4-4-|
 
   Fm              A#        G#    G               Fm
e|-----------------------------------------------------------------|
B|-----------------------------------------------------------------|
G|-----------------3-3-3-3-3---------------------------------------|
D|-3-3-3-3-3-3-3-3-3-3-3-3-3-6-6-6-5---------------3---------------|
A|-3-3-3-3-3-3-3-3-1-1-1-1-1-6-6-6-5---------------3---------------|
E|-1-1-1-1-1-1-1-1-----------4-4-4-3---------------1---------------|
                                    ~~~~~~~~~~~~~~~ ~~~~~~~~~~~~~~~
 


trzalica bar

trzalica bar

Komentarji   

0 #2 NoMAD 01:30 18-06-2016
Zdej pa spet obstaja!
Citat | Poročilo administratorju
0 #1 Chromepirček 17:02 17-06-2016
Videoposnetek ne obstaja
Citat | Poročilo administratorju

Dodaj komentar


Varnostna koda
Osveži

  Iskanje

config