tablatura akordi besedilo   Stampedo (tab)

trzalica.com besedilo akordi tablature

Legenda ikon:


Pogoji uporabe.    

besedilo z akordi besedilo z akordi
tablature tablatura (tabulatura)
tablature tablatura za bas
tablature videolekcija

GuitarPro GutarPro (GP)
note Note (v PDF formatu)
sibelius Sibelius (SIB), itd.
..

   ___________________________________________________________
  |  _______________________________________________________  |
  | |                                                       | |
  | | IZVAJALEC: .............. Siddharta                   | |
  | | PESEM: .................. Stampedo                    | |
  | | ALBUM: .................. Saga                        | |
  | | LETO IZIDA: ............. 2009                        | |
  | | DOMAČA STRAN: ........... www.siddharta.net           | |
  | |_______________________________________________________| |
  | |                                                       | |
  | |           Avtor transkripcije: AliAs                  | |
  | |    Domača stran transkripcije: Trzalica.com           | |
  | |  Datum nastanka transkripcije: 30.4.2010              | |
  | |_______________________________________________________| |
  |___________________________________________________________|
 
================================================================================================
 
PRIJEMI AKORDOV:
A# - X 1 3 3 3 X
C  - X 3 2 0 1 0
Cm - X 3 5 5 4 3
F  - 1 3 3 2 1 1
Fm - 1 3 3 1 1 1
G  - 3 5 5 4 3 3
Gm - 3 5 5 3 3 3
G# - 4 6 6 5 4 4
 
================================================================================================
www.trzalica.com    www.trzalica.com    www.trzalica.com    www.trzalica.com    www.trzalica.com
================================================================================================
 
 
INTRO & VERZ 1:
 
   G
e|-------------------------------------------------|
B|-------------------------------------------------|              \
G|-0-5-7-0-5-7-0-9-0-7-5-0-5-7-0-0-0-5-7-0-5-7-0-7-|               \
D|-------------------------------------------------|                \
A|-------------------------------------------------|                 \
E|-------------------------------------------------|                  \
                                                                       \_ 4x (2x open, 2x palm muted)
   F                               C                                   /
e|-----------------------------------------------------------------|  /
B|-----------------------------------------------------------------|
G|-0-5-4-0-4-5-0-0-2-2-2-0-0-0-----------------------0-0-0-5-5-4-4-|
D|-----------------------------2-2-2-0-0-0-------------------------|
A|-----------------------------------------3-3-3-3-3---------------|
E|-----------------------------------------------------------------|
 
      G
        Vijoličen dim,
                     F            C
        nekaj je v zraku, nekaj tli
      G
        Na robu neba,
                    F           C
        zbirajo se čustva čudežna
 
 
REFREN 1:
 
      Cm                                    Gm
        Se spomniš takrat, ko smo ljubezen dihali
      A#                        Fm
        Kako neverjetno spet diši
                          Cm    A#
        to nas vodi v naslajanje, 
                                Fm  C
        kaj bo potem, noben ne ve
 
 
VERZ 2:
 
   G
e|-------------------------------------------------|
B|-------------------------------------------------|              \
G|-0-5-7-0-5-7-0-9-0-7-5-0-5-7-0-0-0-5-7-0-5-7-0-7-|               \
D|-------------------------------------------------|                \
A|-------------------------------------------------|                 \
E|-------------------------------------------------|                  \
                                                                       \_ 2x palm muted
   F                               C                                   /
e|-----------------------------------------------------------------|  /
B|-----------------------------------------------------------------|
G|-0-5-4-0-4-5-0-0-2-2-2-0-0-0-----------------------0-0-0-5-5-4-4-|
D|-----------------------------2-2-2-0-0-0-------------------------|
A|-----------------------------------------3-3-3-3-3---------------|
E|-----------------------------------------------------------------|
 
      G
        Zapiram oči 
                    F             C
        hoja nad oblaki, rojstvo sanj
      G
        Lepo krvavim,
                  F          C
        ponorele kapje tu delim
 
 
REFREN 2:
 
      Cm                                 Gm
        Počutm se kot, da bi letel nad zvezdami 
      A#                        Fm
        Kako enostavno vse se zdi
                          Cm   A#
        Dolgo je do zore jahanje
                               Fm
        Kaj bo potem noben ne ve
 
 
MOST:
 
   G#                              A#              Gm
e|-6-6-----6-6-----6-6-----6-6-----6-6-----6-6-----6-6-----6-6-----|
B|-----4-4-----4-4-----4-4-----4-4-----6-6-----6-6-----3-3-----3-3-|
G|-----------------------------------------------------------------|  -- 3x
D|-----------------------------------------------------------------|
A|-----------------------------------------------------------------|
E|-----------------------------------------------------------------|
 
   G#              A#                C     (4x)
e|-6-6-----6-6-----6-6-----6-6-----|-----------------|
B|-----4-4-----4-4-----6-6-----6-6-|-9-9-9-9-9-9-9-9-|
G|---------------------------------|-----------------|
D|---------------------------------|-7-7-7-7-7-7-7-7-|
A|---------------------------------|-----------------|
E|---------------------------------|-----------------|
 
      G#       A#          Gm        G#
        Vsa norost in stampedo vse gori
               A#          Gm          G#
        Vsa norost in stampedo jemlje dih
               A#          Gm        G#  A#  C
        Vsa norost in stampedo vse gori
 
   G
e|-------------------------------------------------|
B|-------------------------------------------------|
G|-0-5-7-0-5-7-0-9-0-7-5-0-5-7-0-0-0-5-7-0-5-7-0-7-|
D|-------------------------------------------------|
A|-------------------------------------------------|
E|-------------------------------------------------|
 
   F                               C
e|-----------------------------------------------------------------|
B|-----------------------------------------------------------------|
G|-0-5-4-0-4-5-0-0-2-2-2-0-0-0-----------------------0-0-0-5-5-4-4-|
D|-----------------------------2-2-2-0-0-0-------------------------|
A|-----------------------------------------3-3-3-3-3---------------|
E|-----------------------------------------------------------------|
 
   G                                               F
e|-------------------------------------------------------------------|
B|-------------------------------------------------------------------|
G|-0-5-7-0-5-7-0-9-0-7-5-0-5-7-0-0-0-5-7-0-5-7-0-7-0-5-4-0-4-5-0-0-0-|  -- 3x
D|-------------------------------------------------------------------|
A|-------------------------------------------------------------------|
E|-------------------------------------------------------------------|
 
   G                                               F
e|-----------------------------------------------------------------|
B|-----------------------------------------------------------------|
G|-0-5-7-0-5-7-0-9-0-7-5-0-5-7-0-0-0-5-7-0-5-7-0-7-0-5-4-0-4-5-0-0-| 
D|-----------------------------------------------------------------|
A|-----------------------------------------------------------------|
E|-----------------------------------------------------------------|
 
   C            (3x)
e|---------------------------------|-----------------|
B|---------------------------------|-----------------|
G|-2-2-2-0-0-0---------------------|---0-0-0-5-5-4-4-| 
D|-------------2-2-2-0-0-0---------|-----------------|
A|-------------------------3-3-3-3-|-3---------------|
E|---------------------------------|-----------------|
 
 
REFREN 3:
 
      Fm                                    Cm
        Se spomniš takrat, ko smo ljubezen dihali
      A#                        Fm
        Tako neverjetno spet diši
                          Cm   A#
        to nas vodi v naslajanje, 
                                G#   C
        kaj bo potem, noben ne veee ooo...
 


trzalica bartrzalica bar

Dodaj komentar


Varnostna koda
Osveži

  Iskanje

config