tablatura akordi besedilo   THOR (tab) v1

trzalica.com besedilo akordi tablature

Legenda ikon:


Pogoji uporabe.    

besedilo z akordi besedilo z akordi
tablature tablatura (tabulatura)
tablature tablatura za bas
tablature videolekcija

GuitarPro GutarPro (GP)
note Note (v PDF formatu)
sibelius Sibelius (SIB), itd.
..

Vse verzije te pesmi:      THOR (tab) v1       THOR (tab) v2       THOR (gp)

trzalica bar

 Izvajalec: ..................... Siddharta
 Skladba: ....................... T.H.O.R.
 Transkripcijo izdelal .......... Ta e-poštni naslov je zaščiten proti smetenju. Potrebujete Javascript za pogled.
 Domača stran transkripcije ..... www.trzalica.com

 POSODOBIL: AliAs, 28.3.2007

================================================================================

 Siddharta - T.H.O.R.

(zgornjo E struno uglasite navzdol na D = Drop-D)

intro I:
E|---------------------------------|
B|---------------------------------|
G|---------------------------------|
D|-0-0-----------0-0-0-------------|
A|-0-0-----------0-0-0-------------|
D|-0-0-----------0-0-0-------------|
[---------------m------------------]

E|---------------------------------|
B|---------------------------------|
G|---------------------------------|
D|-0-0-----------0-0-0-0--0--------|
A|-0-0-----------0-0-0-0--0--------|
D|-0-0-----------0-0-0-0--0--------|
[---------------m------------------]

intro II:
E|---------------------------------|
B|---------------------------------|
G|---------------------------------| 4x
D|-0-0-----------1-0-0---------1---|
A|-0-0-----------1-0-0---------1---|
D|-0-0-5/6-5-0---1-0-0-5/6-5-0-1---|
  [-m-]           [-m-]


verz I:
E|---------------------------------|
B|---------------------------------|
G|---------------------------------| 2x
D|-0-0-----------------------------|
A|-0-0-----------------------------|
D|-0-0-5/6-5-0---------------------|
  [-m-]

verz II:
E|---------------------------------|
B|---------------------------------|
G|---------------------------------|
D|-1-1-----------------------------|
A|-1-1-1h3-1-----------------------|
D|-1-1-------1---------------------|
  [-m-]

(verz I) 1x

verz III:
E|-----------------------|
B|-----------------------|
G|-----------------------| 4x
D|-1-0-------------------|
A|-1-0-------------------|
D|-1-0-------------------|

verz IV:
E|-----------------------|
B|-----------------------|
G|-----------------------| 2x
D|-0-1-------------------|
A|-0-1-------------------|
D|-0-1-------------------|

(verz III) 2x

verz V:
E|-----------------------|
B|-----------------------|
G|-----------------------|
D|-1-0---0-0-0-0-0-......|
A|-1-0---0-0-0-0-0-......|
D|-1-0---0-0-0-0-0-......|
        [--------m-------]


ref I:
E|-----------------------------------------------------------------|
B|-----------------------------------------------------------------|
G|---------------------------------------------------------5-5-5-5-|
D|-0-0-0-0-0-0-0-0-5-5-5-5-3-3-3-3-8-8-8-8-8-8-8-8-5-5-5-5-5-5-5-5-|
A|-0-0-0-0-0-0-0-0-5-5-5-5-3-3-3-3-8-8-8-8-8-8-8-8-5-5-5-5-3-3-3-3-|
D|-0-0-0-0-0-0-0-0-5-5-5-5-3-3-3-3-8-8-8-8-8-8-8-8-5-5-5-5---------|
    [------m------] [--m--] [--m--] [------m------] [--m--] [--m--]

E|-----------------------------------------------------------------|
B|-----------------------------------------------------------------|
G|-----------------------------------------------------------------|
D|-0-0-0-0-0-0-0-0-5-5-5-5-3-3-3-3-8-8-8-8-8-8-8-8-5-5-5-5-7-7-7-7-|
A|-0-0-0-0-0-0-0-0-5-5-5-5-3-3-3-3-8-8-8-8-8-8-8-8-5-5-5-5-7-7-7-7-|
D|-0-0-0-0-0-0-0-0-5-5-5-5-3-3-3-3-8-8-8-8-8-8-8-8-5-5-5-5-7-7-7-7-|
    [------m------] [--m--] [--m--] [------m------] [--m--] [--m--]

ref II:
E|-------------------------------|
B|-------------------------------|
G|-------------------------------|
D|-0-0-------------0-0-----0---1-|
A|-0-0-------------0-0-----0---1-|
D|-0-0-------------0-0-----0---1-|

(intro II) 4x

verz Ib:
E|---------------------------------|
B|---------------------------------|
G|---------------------------------| 2x
D|-0-0-5-6-5-0---1-0-0-5-6-5-0-1---|
A|-0-0-5-6-5-0---1-0-0-5-6-5-0-1---|
D|-0-0-5-6-5-0---1-0-0-5-6-5-0-1---|
  [----m------]   [-----m-----]

verz IIb:
E|---------------------------------|
B|---------------------------------|
G|---------------------------------|
D|-1-1-------1---0-1-1-------1-3---|
A|-1-1-1-3-1-1---0-1-1-1-3-1-1-3---|
D|-1-1-------1---0-1-1-------1-3---|
  [----m------]   [-----m-----]

(verz Ib) 1x

(ref I) 2x

(verz III) 4x

(verz IV) 2x

(verz III) 2x

(ref I) 4x

Ta e-poštni naslov je zaščiten proti smetenju. Potrebujete Javascript za pogled.
trzalica bartrzalica bar

Dodaj komentar


Varnostna koda
Osveži

  Iskanje

config