tablatura akordi besedilo   THOR (tab) v2

trzalica.com besedilo akordi tablature

Legenda ikon:


Pogoji uporabe.    

besedilo z akordi besedilo z akordi
tablature tablatura (tabulatura)
tablature tablatura za bas
tablature videolekcija

GuitarPro GutarPro (GP)
note Note (v PDF formatu)
sibelius Sibelius (SIB), itd.
..

Vse verzije te pesmi:      THOR (tab) v1       THOR (tab) v2       THOR (gp)

trzalica bar

 _______________________________________
|                                       |
| IZVAJALEC: ................ Siddharta |
| PESEM: ..................... T.H.O.R. |
| ALBUM: .......................... Rh- |
|_______________________________________|
|                                       |
|   Transkripcija: AliAs                |
|   Domača stran: Trzalica.com          |
|_______________________________________|
 
================================================================================================
 
LEGENDA:
M = MUTE
× = palm muted
ß = z efektom (lahko je tudi distorzija)
 
UGLASITEV: D G C F A D (en ton nižje)
 
TRANSPONACIJA AKORDOV:
 
D G C F A D uglasitev ------------ standardna uglasitev 
 (navidezni prijemi)                  (pravi akordi)
 
                E   ---------------->   D
                G   ---------------->   F
                Am  ---------------->   Gm
                B   ---------------->   A
                C   ---------------->   A#
                F   ---------------->   D#
                D   ---------------->   C
 
Tabulatura in (navidezni) akordi v besedilu, so napisani za en ton nižjo uglasitev - D G C F A D.
Za igranje po tabulaturi morate kitaro torej uglasiti za en ton nižje, če pa boste igrali samo
akorde na standardni uglasitvi, pa glejte zgornjo tabelo, ki prikazuje katere akorde je treba
prijeti namesto navideznih.
 
================================================================================================
www.trzalica.com    www.trzalica.com    www.trzalica.com    www.trzalica.com    www.trzalica.com
================================================================================================
 
INTRO:  (00:07 - 00:29)
 
D|-----------------------------------------|
A|-----------------------------------------|
F|-----------------------------------------|
C|-----------------------------------------|
G|-22-------222--------22-------2222--2----|
D|-00-------000--------00-------0000--0----|
   ××××××××××××××××××××××××××××××××××××
 
D|-------------------------------------|
A|-------------------------------------|
F|-------------------------------------|  -- 4x
C|----------------3---------------3----|
G|-2-2------------3---2-2---------3----|
D|-0-0-5-6-5-0----1---0-0-5-6-5-0-1----|
   ×××         M      ×××
 
 
VERZ 1:  (00:29 - 00:58)
 
        E
        To je ta kraj brez porazov,
        tu ni več praznih obljub,
        F
        ni obnemelih izrazov,
        E
        sledi obdobje miru.
 
      E                                         F                    E
D|----------------------------------------------------------------------------------------|
A|----------------------------------------------------------------------------------------|
F|----------------------------------------------------------------------------------------|
C|-3--------------------------------------------------------------------------------------|
G|-3------------------------------------------------3-5-3---------------------------------|
D|-1--0-0-5-6-5-0----------0-0-5-6-5-0----------1-1-------1----------0-0-5-6-5-0----------|
   ß              M                    M                    M                    M
 
        E
        Ne bomo pili le vode,
        ne jedli same soli,
        F
        izbrisane vse tegobe,
        E
        samo veselje zori.
 
 
PRE-REFREN 1:  (00:59 - 01:17)
 
 Za nas      Skrbi      Dovolj     Krvi      Predan      Ponos      Zavest     V nas
D|-----------------------------------------------------------------------------------------|
A|-----------------------------------------------------------------------------------------|
F|-----------------------------------------------------------------------------------------|
C|-3-2--------3-2--------3-2--------3-2--------3-3--------2-3--------3-2--------3-2--------|
G|-3-2--------3-2--------3-2--------3-2--------3-3--------2-3--------3-2--------3-2--------|
D|-1-0--------1-0--------1-0--------1-0--------1-1--------0-1--------1-0--------1-0--------|
       M          M          M          M          M          M          M          M
 
          Kdor gleda...
D|-----------------------------------|
A|-----------------------------------|
F|-----------------------------------|
C|-3-2---------------2-2-2-2-2-2-2-2-|
G|-3-2-2-2-2-2-2-2-2-2-2-2-2-2-2-2-2-|
D|-1-0-0-0-0-0-0-0-0-0-0-0-0-0-0-0-0-|
       ×××××××××××××××××××××××××××××
 
 
REFREN 1:  (01:17 - 01:32)
 
      E             Am        G  C
        Kdor gleda nas iz peklaaaa,
                   Am    D     E
        naj vidi kdo je del neba,
                    Am       G  C
        nikdar nas več ne boliiii,
                 Am     B      E
        doma na zemlji čudežni.
 
   E               Am      G       C               Am      D
D|-----------------------------------------------------------------|
A|-----------------------------------------------------------------|
F|---------------------------------5-----------------------7-------|
C|-2---------------7-------5-------5-5-5-5-5-5-5-5-7-------7-7-7-7-|
G|-2-2-2-2-2-2-2-2-7-7-7-7-5-5-5-5-3-3-3-3-3-3-3-3-7-7-7-7-5-5-5-5-|
D|-0-0-0-0-0-0-0-0-5-5-5-5-3-3-3-3-----------------5-5-5-5---------|
     ×××××××××××××   ×××××   ×××××   ×××××××××××××   ×××××   ×××××
 
   E               Am      G       C               Am      B       E
D|---------------------------------------------------------------------|
A|---------------------------------------------------------------------|
F|---------------------------------5-----------------------4-----------|
C|-2---------------7-------5-------5-5-5-5-5-5-5-5-7-------4-4-4-4-2---|
G|-2-2-2-2-2-2-2-2-7-7-7-7-5-5-5-5-3-3-3-3-3-3-3-3-7-7-7-7-2-2-2-2-2---|
D|-0-0-0-0-0-0-0-0-5-5-5-5-3-3-3-3-----------------5-5-5-5---------0---|
     ×××××××××××××   ×××××   ×××××   ×××××××××××××   ×××××   ×××××    M
 
 
PRE-VERZ 2:  (01:34 - 01:51)
 
                               4x
D|----------|-------------------------------------|
A|----------|-------------------------------------|
F|----------|-------------------------------------|
C|-2---2-3--|----------------3---------------3----|
G|-2---2-3--|-2-2------------3---2-2---------3----|
D|-0---0-1--|-0-0-5-6-5-0----1---0-0-5-6-5-0-1----|
     M        ×××         M      ×××
 
 
VERZ 2:  (01:52 - 02:20)
 
        E
        Ne krademo več bogatim,
        sami postajamo to,
        F
        nobenih bojev predati,
        E
        ne bo potrebno jih ne bo.
 
      E
D|------------------------------------------------------------------|
A|------------------------------------------------------------------|
F|------------------------------------------------------------------|
C|-3---------------3--------------3---------------3--------------3--|
G|-3---------------3--------------3---------------3--------------3--|
D|-1--0-0-5-6-5-0--1--0-0-5-6-5-0-1--0-0-5-6-5-0--1--0-0-5-6-5-0-1--|
   ß  ×××××××××××     ×××××××××××    ×××××××××××     ×××××××××××
 
   F                              E
D|---------------------------------------------------------------|
A|---------------------------------------------------------------|
F|---------------------------------------------------------------|
C|--------------2--------------5---------------3--------------3--|
G|-----3-5-3----2------3-5-3---5---------------3--------------3--|
D|-1-1-------1--0--1-1-------1-3--0-0-5-6-5-0--1--0-0-5-6-5-0-1--|
   ×××××××××××     ×××××××××××    ×××××××××××     ×××××××××××
 
        E
        Prenehala je morija,
        izginilo je to zlo,
        F
        začela se je idila,
        E
        začelo se je lepo.
 
 
REFREN 2:  (02:20 - 02:35)
 
      E             Am        G  C
        Kdor gleda nas iz peklaaaa,
                   Am    D     E
        naj vidi kdo je del neba,
                    Am       G  C
        nikdar nas več ne boliiii,
                 Am     B      E
        doma na zemlji čudežni.
 
   E               Am      G       C               Am      D
D|-----------------------------------------------------------------|
A|-----------------------------------------------------------------|
F|---------------------------------5-----------------------7-------|
C|-2---------------7-------5-------5-5-5-5-5-5-5-5-7-------7-7-7-7-|
G|-2-2-2-2-2-2-2-2-7-7-7-7-5-5-5-5-3-3-3-3-3-3-3-3-7-7-7-7-5-5-5-5-|
D|-0-0-0-0-0-0-0-0-5-5-5-5-3-3-3-3-----------------5-5-5-5---------|
     ×××××××××××××   ×××××   ×××××   ×××××××××××××   ×××××   ×××××
 
   E               Am      G       C               Am      B
D|-----------------------------------------------------------------|
A|-----------------------------------------------------------------|
F|---------------------------------5-----------------------4-------|
C|-2---------------7-------5-------5-5-5-5-5-5-5-5-7-------4-4-4-4-|
G|-2-2-2-2-2-2-2-2-7-7-7-7-5-5-5-5-3-3-3-3-3-3-3-3-7-7-7-7-2-2-2-2-|
D|-0-0-0-0-0-0-0-0-5-5-5-5-3-3-3-3-----------------5-5-5-5---------|
     ×××××××××××××   ×××××   ×××××   ×××××××××××××   ×××××   ×××××
 
 
BRIDGE:  (02:35 - 03:04)
 
        Za nas, Skrbi, Dovolj, Krvi, Predan, Ponos, Zavest, V nas
 
 Za nas          Skrbi            Dovolj          Krvi
D|-----------------------------------------------------------------|
A|-----------------------------------------------------------------|
F|-----------------------------------------------------------------|
C|-3-2-------------3-2-------------3-2-------------3-2-------------|
G|-3-2-2-2-2-2-2-2-3-2-2-2-2-2-2-2-3-2-2-2-2-2-2-2-3-2-2-2-2-2-2-2-|
D|-1-0-0-0-0-0-0-0-1-0-0-0-0-0-0-0-1-0-0-0-0-0-0-0-1-0-0-0-0-0-0-0-|
       ×××××××××××     ×××××××××××     ×××××××××××     ×××××××××××
 
 Predan           Ponos          Zavest           V nas
D|-----------------------------------------------------------------|
A|-----------------------------------------------------------------|
F|-----------------------------------------------------------------|
C|-3-3-------------2-3-------------3-2-------------3-2-------2-2-2-|
G|-3-3-3-3-3-3-3-3-2-3-3-3-3-3-3-3-3-2-2-2-2-2-2-2-3-2-2-2-2-2-2-2-|
D|-1-1-1-1-1-1-1-1-0-1-1-1-1-1-1-1-1-0-0-0-0-0-0-0-1-0-0-0-0-0-0-0-|
       ×××××××××××     ×××××××××××     ×××××××××××     ×××××××××××
 
 
REFREN 3:  (03:04 - 03:34)
 
      E             Am        G  C
        Kdor gleda nas iz peklaaaa,
                   Am    D     E
        naj vidi kdo je del neba,
                    Am       G  C
        nikdar nas več ne boliiii,
                 Am     B      E
        doma na zemlji čudežni.
                    Am        G  C
        Kdor gleda nas iz peklaaaa,
                   Am    D     E
        naj vidi kdo je del neba,
                    Am       G  C
        nikdar nas več ne boliiii,
                 Am     B      E
        doma na zemlji čudežni.
 
   E               Am      G       C               Am      D
D|-----------------------------------------------------------------|
A|-----------------------------------------------------------------|
F|---------------------------------5-5-5-5-5-5-5-5---------7-7-7-7-|
C|-2-2-2-2-2-2-2-2-7-7-7-7-5-5-5-5-5-5-5-5-5-5-5-5-7-7-7-7-7-7-7-7-|
G|-2-2-2-2-2-2-2-2-7-7-7-7-5-5-5-5-3-3-3-3-3-3-3-3-7-7-7-7-5-5-5-5-|
D|-0-0-0-0-0-0-0-0-5-5-5-5-3-3-3-3-----------------5-5-5-5---------|
 
   E               Am      G       C               Am      B
D|-----------------------------------------------------------------|
A|-----------------------------------------------------------------|
F|---------------------------------5-5-5-5-5-5-5-5---------4-4-4-4-|
C|-2-2-2-2-2-2-2-2-7-7-7-7-5-5-5-5-5-5-5-5-5-5-5-5-7-7-7-7-4-4-4-4-|
G|-2-2-2-2-2-2-2-2-7-7-7-7-5-5-5-5-3-3-3-3-3-3-3-3-7-7-7-7-2-2-2-2-|
D|-0-0-0-0-0-0-0-0-5-5-5-5-3-3-3-3-----------------5-5-5-5---------|
 
   E               Am      G       C               Am      D
D|-----------------------------------------------------------------|
A|-----------------------------------------------------------------|
F|---------------------------------5-5-5-5-5-5-5-5---------7-7-7-7-|
C|-2-2-2-2-2-2-2-2-7-7-7-7-5-5-5-5-5-5-5-5-5-5-5-5-7-7-7-7-7-7-7-7-|
G|-2-2-2-2-2-2-2-2-7-7-7-7-5-5-5-5-3-3-3-3-3-3-3-3-7-7-7-7-5-5-5-5-|
D|-0-0-0-0-0-0-0-0-5-5-5-5-3-3-3-3-----------------5-5-5-5---------|
 
   E               Am      G       C               Am      B
D|---------------------------------------------------------------------|
A|---------------------------------------------------------------------|
F|---------------------------------5-5-5-5-5-5-5-5---------4-4-4-4-----|
C|-2-2-2-2-2-2-2-2-7-7-7-7-5-5-5-5-5-5-5-5-5-5-5-5-7-7-7-7-4-4-4-4-3-2-|
G|-2-2-2-2-2-2-2-2-7-7-7-7-5-5-5-5-3-3-3-3-3-3-3-3-7-7-7-7-2-2-2-2-3-2-|
D|-0-0-0-0-0-0-0-0-5-5-5-5-3-3-3-3-----------------5-5-5-5---------1-0-|
                                                                      M
 

trzalica bartrzalica bar

Komentarji   

0 #2 AliAs 18:02 12-07-2017
Uf ježešna... tole je pa že več kot 10 let stara tipkarska + copy/paste napaka :o
Sem popravil :)
Hvala ;)
Citat | Poročilo administratorju
0 #1 Psych16V 09:49 11-07-2017
tablatura je zakon ampak del tablature ki se kaže v drugem delu "intro"-ta in v pre-verzu je rahlo napačna (po mojem mnenju, saj mogoče nimam prav),
4x
D|----------|---------------------------------|
A|----------|---------------------------------|
F|----------|---------------------------------|
C|-2---2-3--|--------------------3----------------------3----|
G|-2---2-3--|-2-2---------------3---2-2--------------3----|
D|-0---0-1--|-0-0-3-5-6-5-0--1---0-0-3-5-6-5-0-1----|
M ××× M ×××
predvidevam da je napisano za lažje igranje
Citat | Poročilo administratorju

Dodaj komentar


Varnostna koda
Osveži

  Iskanje

config