tablatura akordi besedilo   Venom E (tab) v1

trzalica.com besedilo akordi tablature

Legenda ikon:


Pogoji uporabe.    

besedilo z akordi besedilo z akordi
tablature tablatura (tabulatura)
tablature tablatura za bas
tablature videolekcija

GuitarPro GutarPro (GP)
note Note (v PDF formatu)
sibelius Sibelius (SIB), itd.
..

Vse verzije te pesmi:      Venom E (tab) v1       Venom E (tab) v2

trzalica bar

 Izvajalec: ..................... Siddharta
 Skladba: ....................... Venom E
 Transkripcijo izdelal .......... Ta e-poštni naslov je zaščiten proti smetenju. Potrebujete Javascript za pogled.
 Domača stran transkripcije ..... www.trzalica.com

 POSODOBIL: AliAs, 27.3.2007

================================================================================

Siddharta - VENOM E

(zgornjo E struno uglasite navzdol na D = Drop-D uglasitev)

intro I (namesto klaviatur):

veš srce za- go- ri ko te po- gledam ti me
E|-------------------------------------------------------|
B|----10----------10----12----------12----13----------13-|
G|----10----10----------12----12----------14----14-------|
D|----10----------------12----------------14-------------|
A|-------------------------------------------------------|
D|-------------------------------------------------------|

gle- daš ta- krat se za- gledava oba
E|----------------------------------8--------------------------|
B|-12----10-12----------------10---------8---------8----10-----|
G|-12----------12-12----10---------------7----7----7----9----9-|
D|-12-------------------7----------------5--------------7------|
A|----------------------8--------------------------------------|
D|-------------------------------------------------------------|

le nocoj ta po- mlad je le za
E|-8----7--------------------------------------------|
B|-10---8---10---8---6----6---------12------------12-|
G|----------10---9---7---------7----12------12-------|
D|----------------------------------12---------------|
A|---------------------------------------------------|
D|---------------------------------------------------|

naju....
E|----------------------------------------------8---|
B|13----------13--12----10----------10----10--------|
G|14----14--------12----------12----10--------------|
D|14--------------12--------------------------------|
A|--------------------------------------------------|
D|--------------------------------------------------|

E|-------------------|
B|-8---------8----10-|
G|-7----7---------9--|
D|-------------------|
A|-------------------|
D|-------------------|

intro II:
E|--------------------------|
B|--------------------------|
G|--------------------------| 4x
D|--------------------------|
A|-7----5-5-7--4--5--2--4---|
D|-7----5-5-7--4--5--2--4---|

verz Ia:
E|--------------------------|
B|--------------------------|
G|--------------------------| 8x
D|--------------------------|
A|-7----5-5-7--4--5--2--4-4-|
D|-7----5-5-7--4--5--2--4-4-|
       [-m-]  [------m-----]

verz Ib:
E|----------------------|
B|----------------------|
G|----------------------|
D|-0--0-0-5/7--5--------|
A|-0--0-0-3/5--5--------|
D|-0--0-0------5--------|

verz Ic:
E|--------------------------|
B|--------------------------|
G|--------------------------|
D|--------------------------|
A|-7----5-5-7--4--5--2--4-4-|
D|-7----5-5-7--4--5--2--4-4-|

verz Id:
E|-------------------------|
B|-------------------------|
G|-------------------------|
D|-0--0-0-0-3-3-5--5-5-5...|
A|-0--0-0-0-3-3-5--5-5-5...|
D|-0--0-0-0-3-3-5--5-5-5...|

ref a:
E|------------------------------------|
B|------------------------------------|
G|------------------------------------|
D|-3--3--3--5--5--5--7--7--7--5--5--5-|
A|-3--3--3--5--5--5--7--7--7--5--5--5-|
D|-3--3--3--5--5--5--7--7--7--5--5--5-|

ref b:
E|----------------------------------|
B|----------------------------------|
G|----------------------------------|
D|-0--0--0--5--5--5--7-:7:7:7:7:7:7-|
A|-0--0--0--5--5--5--7-:7:7:7:7:7:7-|
D|-0--0--0--5--5--5--7-:7:7:7:7:7:7-|

(ref a) 1x

ref c:
E|----------------------------------|
B|----------------------------------|
G|----------------------------------|
D|-0--0--0--5--5--5--7--------7-----|
A|-0--0--0--5--5--5--7--------7-----|
D|-0--0--0--5--5--5--7--------7-----|

verz IIa:
E|-----------------------------|
B|-----------------------------|
G|---------9--9-9--9-7---------| 4x
D|-7--7----------------10--7---|
A|-----------------------------|
D|-----------------------------|

E|-----------------------------|
B|-----------------------------|
G|-----------------------------|
D|-7--7------------------------|
A|-----------------------------|
D|-----------------------------|

(ref a) 1x

(ref b) 1x

(ref a) 1x

ref d:
E|----------------------------------|
B|----------------------------------|
G|----------------------------------|
D|-0--0--0--5--5--5------------7----|
A|-0--0--0--5--5--5-------7---------|
D|-0--0--0--5--5--5--7--------------|

bridge (namesto klaviatur):
E|-17--17--22--23------18-17-15--17----------------------15--17-|
B|-----------------------------------18------15--17--18---------|
G|--------------------------------------------------------------|
D|--------------------------------------------------------------|
A|--------------------------------------------------------------|
D|--------------------------------------------------------------|

no- coj bom vse
E|-20--17------20----22----19-----|
B|---------17---------------------|
G|--------------------------------|
D|--------------------------------|
A|--------------------------------|
D|--------------------------------|

zate naredil
E|-17--17--22--23------18-17-15--17----------------------15--17-|
B|-----------------------------------18------15--17--18---------|
G|--------------------------------------------------------------|
D|--------------------------------------------------------------|
A|--------------------------------------------------------------|
D|--------------------------------------------------------------|

na tvoj na- čin
E|-20--17------20----22----19-----|
B|---------17---------------------|
G|--------------------------------|
D|--------------------------------|
A|--------------------------------|
D|--------------------------------|

tole povedal...
E|-17--17--22--23------18-17-15--17----------------------15--17-|
B|-----------------------------------18------15--17--18---------|
G|--------------------------------------------------------------|
D|--------------------------------------------------------------|
A|--------------------------------------------------------------|
D|--------------------------------------------------------------|

a vseeno ma- lo...
E|-20--17------20-----22----19------17--17--22-|
B|---------17----------------------------------|
G|---------------------------------------------| 2x
D|---------------------------------------------|
A|---------------------------------------------|
D|---------------------------------------------|

E|----------------------------------------|
B|----------------------------------------|
G|----------------------------------------|
D|-777:-777:-777:-777:-775:-555:-555:-555:|
A|-777:-777:-777:-777:-775:-555:-555:-555:|
D|-777:-777:-777:-777:-775:-555:-555:-555:|

E|----------------------------------------|
B|----------------------------------------|
G|----------------------------------------|
D|-550:-000:-000:-000:-002:-222:-222:-222:|
A|-550:-000:-000:-000:-002:-222:-222:-222:|
D|-550:-000:-000:-000:-002:-222:-222:-222:|

E|----------------------------------------|
B|----------------------------------------|
G|----------------------------------------|
D|-227-------------5--7--5----------------|
A|-227-------------5--7--5----------------|
D|-227-------------5--7--5----------------|

E|----------------------------------------|
B|----------------------------------------|
G|----------------------------------------|
D|-550-----------------0-2----------------|
A|-550-----------------0-2----------------|
D|-550-----------------0-2----------------|

E|----------------------------------------|
B|----------------------------------------|
G|----------------------------------------|
D|-5-7-----------------5-7-------5-7------|
A|-5-7-----------------5-7-------5-7------|
D|-5-7-----------------5-7-------5-7------|

(ref a) 1x

(ref b) 1x

(ref a) 1x

(ref b) 1x

(ref a) 1x

(ref b) 1x

(ref a) 1x

E|----------------------------------|
B|----------------------------------|
G|----------------------------------|
D|-0--0--0--5--5--5--7--------0-----|
A|-0--0--0--5--5--5--7--------0-----|
D|-0--0--0--5--5--5--7--------0-----|

Ta e-poštni naslov je zaščiten proti smetenju. Potrebujete Javascript za pogled.
trzalica bartrzalica bar

Dodaj komentar


Varnostna koda
Osveži

  Iskanje

config