tablatura akordi besedilo   Venom E (tab) v2

trzalica.com besedilo akordi tablature

Legenda ikon:


Pogoji uporabe.    

besedilo z akordi besedilo z akordi
tablature tablatura (tabulatura)
tablature tablatura za bas
tablature videolekcija

GuitarPro GutarPro (GP)
note Note (v PDF formatu)
sibelius Sibelius (SIB), itd.
..

Vse verzije te pesmi:      Venom E (tab) v1       Venom E (tab) v2

trzalica bar

 _______________________________________
|                                       |
| IZVAJALEC: ................ Siddharta |
| PESEM: ...................... Venom e |
| ALBUM: .......................... Rh- |
|_______________________________________|
|                                       |
|   Transkripcija: AliAs                |
|   Domača stran: Trzalica.com          |
|_______________________________________|
 
================================================================================================
 
LEGENDA:
M = MUTE
× = palm muted
~ = let ring
 
UGLASITEV: D G C F A D (en ton nižje)
 
TRANSPONACIJA AKORDOV:
 
D G C F A D uglasitev ------------ standardna uglasitev 
 (navidezni prijemi)                  (pravi akordi)
 
                G   ---------------->   F
                A   ---------------->   G
                Bm  ---------------->   Am
                Em  ---------------->   Dm
                F#  ---------------->   E
                F   ---------------->   D#
                D   ---------------->   C
 
Tabulatura in (navidezni) akordi v besedilu, so napisani za en ton nižjo uglasitev - D G C F A D.
Za igranje po tabulaturi morate kitaro torej uglasiti za en ton nižje, če pa boste igrali samo
akorde na standardni uglasitvi, pa glejte zgornjo tabelo, ki prikazuje katere akorde je treba
prijeti namesto navideznih.
 
================================================================================================
www.trzalica.com    www.trzalica.com    www.trzalica.com    www.trzalica.com    www.trzalica.com
================================================================================================
 
 
INTRO:  (00:00 - 00:47)
 
               G      A           Bm
        Veš srce zagori ko te pogledam,
                A        Em        A       Bm
        ti me gledaš takrat se zagledava oba.
              G         A            Bm
        Le nocoj ta pomlad je le za naju,
                 A       Em          A         Bm
        jaz na trati nabral bom cvetlice zate le.
 
D|-------------------------|
A|-------------------------|
F|-------------------------|  --4x
C|-------------------------|
G|-------------------------|
D|-7---5-5-7--4--5--2--4---|
 
 
VERZ 1:  (00:47 - 01:16)
 
        Zdaj ni več nabijanja v prazn, zdaj ni več bedarij.
        Daj nam mir, umakni to golazen, škoda vroče krvi,
 
D|-------------------------|
A|-------------------------|
F|-------------------------|  --7x
C|-------------------------|
G|-------------------------|
D|-7---5-5-7--4--5--2--4---|
       ×      ××××××××××
 
        pa da ne bo nehote užaljen tvoj ponos, a zgleda da je že.
 
D|--------------------------------------------|
A|--------------------------------------------|
F|--------------------------------------------|
C|-------------------------------------7------|
G|--------------------------------5-7--7------|
D|-7---5-5-7--4--5--2--3-2-1-0-0-------5------|
       ×      ×××××××
 
D|------------------------------------------------------------------------|
A|------------------------------------------------------------------------|
F|------------------------------------------------------------------------|
C|----------------------------------------------------------------7-7-7-7-|
G|--------------------------------------------------------7-7-7-7-7-7-7-7-|
D|-7---5-5-7--4--5--2--3-2-1-0-0-0-3-4-5--5-5-5-5-5-5-5-5-5-5-5-5-5-5-5-5-|
 
 
REFREN 1:  (01:17 - 01:36)
 
                G         A         Bm
        Nam je dost tele butaste norije
              A     Em         A       Bm
        in osladnosti k nam kljuvajo oči.
               G       A        Bm
        In v štali se davijo živali,
              A    Em        A              Bm
        ko izvejo da je za njih ta tvoj navdih
 
   G             A             Bm            A             Em            A             Bm
D|----------------------------------------------------------------------------------------------------|
A|----------------------------------------------------------------------------------------------------|
F|----------------------------------------------------------------------------------------------------|
C|-5--5-5--5-5-5-7--7-7--7-7-7-9--9-9--9-9-9-7--7-7--7-7-7-2--2-2--2-2-2-7--7-7--7-7-7-9--9-9-9-9-9-9-|
G|-5--5-5--5-5-5-7--7-7--7-7-7-9--9-9--9-9-9-7--7-7--7-7-7-2--2-2--2-2-2-7--7-7--7-7-7-9--9-9-9-9-9-9-|
D|-3--3-3--3-3-3-5--5-5--5-5-5-7--7-7--7-7-7-5--5-5--5-5-5-0--0-0--0-0-0-5--5-5--5-5-5-7--7-7-7-7-7-7-|
                                                                                         M M M M M M
 
   G             A             Bm            A             Em            A             Bm
D|---------------------------------------------------------------------------------------------------|
A|---------------------------------------------------------------------------------------------------|
F|---------------------------------------------------------------------------------------------------|
C|-5--5-5--5-5-5-7--7-7--7-7-7-9--9-9--9-9-9-7--7-7--7-7-7-2--2-2--2-2-2-7--7-7--7-7-7-9------9------|
G|-5--5-5--5-5-5-7--7-7--7-7-7-9--9-9--9-9-9-7--7-7--7-7-7-2--2-2--2-2-2-7--7-7--7-7-7-9------9------|
D|-3--3-3--3-3-3-5--5-5--5-5-5-7--7-7--7-7-7-5--5-5--5-5-5-0--0-0--0-0-0-5--5-5--5-5-5-7------7------|
                                                                                        ~~~~~~ ~~~~~~
 
VERZ 2:  (01:37 - 02:06)
 
        Še tamali so posral se k videli so tvoje delo
        in debili so zarili svoje glave v zemljo.
        Če bi vedu kdo bi tebi dopovedu da bi rabu skero,
        ne zakaj k pol pokvar humor k je, k je že tolk bolan da je jasn kdo je nor
        'jest ti bom naredu stih k bo dobr... k ti'
 
                    4x
D|---------------------------------------|-----------|
A|---------------------------------------|-----------|
F|----------11--11-11-11-11-9------------|-----------|
C|-9--9-----------------------12--9------|-9--9------|
G|---------------------------------------|-----------|
D|---------------------------------------|-----------|
     M  M      M                 M  M        M  M
 
 
REFREN 2:  (02:07 - 02:27)
 
                G            A            Bm           A  ---\
        Nam je dost, nam je dost, nam je dost, nam je dost,   \__ 2x
                Em           A            Bm                  /
        nam je dost, nam je dost, nam je doooooooooost.  ----/
 
   G                 A             Bm            A
D|-------------------------------------------------------------|
A|-------------------------------------------------------------|
F|-------------------------------------------------------------|
C|-----5--5-5--5-5-5-7--7-7--7-7-7-9--9-9--9-9-9-7--7-7--7-7-7-|
G|-5-5-5--5-5--5-5-5-7--7-7--7-7-7-9--9-9--9-9-9-7--7-7--7-7-7-|
D|-3-3-3--3-3--3-3-3-5--5-5--5-5-5-7--7-7--7-7-7-5--5-5--5-5-5-|
   ×××
 
   Em            A             Bm
D|-------------------------------------------------------|
A|-------------------------------------------------------|
F|-------------------------------------------------------|
C|-2--2-2--2-2-2-7--7-7--7-7-7-9----9----9----9----9--9--|
G|-2--2-2--2-2-2-7--7-7--7-7-7-9--9-9--9-9--9-9--9-9--9--|
D|-0--0-0--0-0-0-5--5-5--5-5-5-7--7-7--7-7--7-7--7-7--7--|
                                  ×    ×    ×    ×   M  M
 
   G             A             Bm            A             Em            A             Bm
D|------------------------------------------------------------------------------------------------------|
A|------------------------------------------------------------------------------------------------------|
F|------------------------------------------------------------------------------------------------------|
C|-5--5-5--5-5-5-7--7-7--7-7-7-9--9-9--9-9-9-7--7-7--7-7-7-2--2-2--2-2-2-7--7-7--7-7-7-----------9------|
G|-5--5-5--5-5-5-7--7-7--7-7-7-9--9-9--9-9-9-7--7-7--7-7-7-2--2-2--2-2-2-7--7-7--7-7-7------9-----------|
D|-3--3-3--3-3-3-5--5-5--5-5-5-7--7-7--7-7-7-5--5-5--5-5-5-0--0-0--0-0-0-5--5-5--5-5-5-7----------------|
                                                                                                       M
 
 
BRIDGE:  (02:28 - 03:31)
 
        A  F  Em
 
      Bm            A            F   Em
        Nocoj bom vse zate nareduuuuuuu,
      Bm           A             F   Em
        na tvoj način tole poveduuuuuuu,
      Bm          A               Em
        a vseeno mal nase bom gledu
                  F#
        in pod vokal žgžgžage prtegnu.
 
      Bm       D Em A           Em
        Nocoj bom vse zate naredu,
               G A F#
        a žal ne gre brez zajebancije.
 
   Bm                       D  Em A
D|-------------------------------------------------------------|
A|-------------------------------------------------------------|
F|--------------------------7--9-------------------------------|
C|-9-9-9--9-9-9--9-9-9--9-9-7--9--7--7-7-7--7-7-7--7-7-7-7-7-7-|
G|-9-9-9--9-9-9--9-9-9--9-9-5--7--7--7-7-7--7-7-7--7-7-7-7-7-7-|
D|-7-7-7--7-7-7--7-7-7--7-7-------5--5-5-5--5-5-5--5-5-5-5-5-5-|
         M      M      M            M      M      M
 
   Em                   G  A  F#
D|---------------------------------------------------------|
A|---------------------------------------------------------|
F|---------------------------------------------------------|
C|-2--2-2-2--2-2-2--2-2-5--7--4--4-4-4--4-4-4--4-4-4-4-4-4-|
G|-2--2-2-2--2-2-2--2-2-5--7--4--4-4-4--4-4-4--4-4-4-4-4-4-|
D|-0--0-0-0--0-0-0--0-0-3--5--2--2-2-2--2-2-2--2-2-2-2-2-2-|
     M      M      M            M      M      M
 
      Bm       D Em A           Em
        Nocoj bom vse zate naredil,
               G A F#               A    Bm
        a žal ne gre, ker tega res mamo dost.
         A    Bm    A    Bm
        Mamo dost, mamo dost. 
 
   Bm           D  Em A            Em           G  A  F#           A   Bm       A   Bm     A   Bm
D|------------------------------------------------------------------------------------------------------|
A|------------------------------------------------------------------------------------------------------|
F|--------------7--9------------------------------------------------------------------------------------|
C|-4------------7--9--7----------7-2------------5--7--4----------------4--------7-7-9------7-7-9--------|
G|-2------------5--7--7----------7-2------------5--7--4------------0-0-2--------7-7-9------7-7-9--------|
D|-2------------------5----------5-0------------3--5--2------------0-0-2--------5-5-7------5-5-7--------|
    ~~~~~~~~~~~~       ~~~~~~~~~~~~ ~~~~~~~~~~~~       ~~~~~~~~~~~~      M            M          M
 
 
REFREN 3:  (03:32 - 04:25)
 
                G         A         Bm
        Nam je dost tele butaste norije
              A     Em         A       Bm
        in osladnosti k nam kljuvajo oči.
               G       A        Bm
        In v štali se davijo živali,
              A    Em        A              Bm
        ko izvejo da je za njih ta tvoj navdih
 
                G            A            Bm           A  ---\
        Nam je dost, nam je dost, nam je dost, nam je dost,   \__ 2x
                Em           A            Bm                  /
        nam je dost, nam je dost, nam je doooooooooost.  ----/
 
   G             A             Bm            A
D|---------------------------------------------------------|
A|---------------------------------------------------------|
F|---------------------------------------------------------|  \
C|-5--5-5--5-5-5-7--7-7--7-7-7-9--9-9--9-9-9-7--7-7--7-7-7-|   \
G|-5--5-5--5-5-5-7--7-7--7-7-7-9--9-9--9-9-9-7--7-7--7-7-7-|    \
D|-3--3-3--3-3-3-5--5-5--5-5-5-7--7-7--7-7-7-5--5-5--5-5-5-|     \__ 3x
                                                                 /
   Em            A             Bm                               /
D|-------------------------------------------------------|     /
A|-------------------------------------------------------|    /
F|-------------------------------------------------------|   /
C|-2--2-2--2-2-2-7--7-7--7-7-7-9----9----9----9----9--9--|  /
G|-2--2-2--2-2-2-7--7-7--7-7-7-9--9-9--9-9--9-9--9-9--9--|
D|-0--0-0--0-0-0-5--5-5--5-5-5-7--7-7--7-7--7-7--7-7--7--|
                                  ×    ×    ×    ×   M  M
 
 
   G             A             Bm            A             Em            A             Bm
D|-------------------------------------------------------------------------------------------------------|
A|-------------------------------------------------------------------------------------------------------|
F|----------------------------------------------------------------------------------------------0--------|
C|-5--5-5--5-5-5-7--7-7--7-7-7-9--9-9--9-9-9-7--7-7--7-7-7-2--2-2--2-2-2-7--7-7--7-7-7-9--------0--------|
G|-5--5-5--5-5-5-7--7-7--7-7-7-9--9-9--9-9-9-7--7-7--7-7-7-2--2-2--2-2-2-7--7-7--7-7-7-9--------0--------|
D|-3--3-3--3-3-3-5--5-5--5-5-5-7--7-7--7-7-7-5--5-5--5-5-5-0--0-0--0-0-0-5--5-5--5-5-5-7--------0--------|
                                                                                        ~~~~~~~~ ~~~~~~~~
 

trzalica bartrzalica bar

Dodaj komentar


Varnostna koda
Osveži

  Iskanje

config