tablatura akordi besedilo   Vojna idej (tab)

trzalica.com besedilo akordi tablature

Legenda ikon:


Pogoji uporabe.    

besedilo z akordi besedilo z akordi
tablature tablatura (tabulatura)
tablature tablatura za bas
tablature videolekcija

GuitarPro GutarPro (GP)
note Note (v PDF formatu)
sibelius Sibelius (SIB), itd.
..

Oglej si še:

  Vojna Idej - akustična verzija (tab)

trzalica bar

 ___________________________________________________________
|  _______________________________________________________  |
| |                                                       | |
| | IZVAJALEC: .............. Siddharta                   | |
| | PESEM: .................. Vojna idej                  | |
| | ALBUM: .................. Vojna idej (singel)         | |
| | LETO IZIDA: ............. 2008                        | |
| | DOMAČA STRAN: ........... www.siddharta.net           | |
| |_______________________________________________________| |
| |                                                       | |
| |    Avtorja transkripcije: vecKt & AliAs               | |
| |    Domača stran transkripcije: Trzalica.com           | |
| |    Datum nastanka transkripcije: 27.12.2008           | |
| |_______________________________________________________| |
|___________________________________________________________|
 
================================================================================================
 
LEGENDA ZNAKOV:
M = MUTE
× = palm muted
¤ = harmonični ton
 
Prijemi akordov:
Am - X02210
A# - X1333X
C  - X32010
Dm - XX0231
F  - 133211
Gm - 355333
 
================================================================================================
www.trzalica.com    www.trzalica.com    www.trzalica.com    www.trzalica.com    www.trzalica.com
================================================================================================
 
UVOD:
 
Kitara 1:
e|---------------------------------------------------|
B|-10-----10-----8------8------8----8----8-----8-----|
G|---10-----10-----10-----10-----10---10---9-----9---|  -- 8x
D|------0------0------0------0---------------0-----0-|
A|---------------------------------------------------|
E|---------------------------------------------------|
 
Kitara 2:
E|------------------------------------------|
B|---3--3-5--5-6--6-8--8-6--5-6-5h6p5-3-5-3-|
G|-2----------------------------------------|  -- 4x
D|------------------------------------------|
A|------------------------------------------|
E|------------------------------------------|
 
 
Kitara 1:
                     2x                                              2x
   Dm          A#          F       Am            Dm          C           F       Gm
e|---------------------------------------------|---------------------------------------------|
B|---------------------------------------------|---------------------------------------------|
G|---------------------------------------------|---------------------------------------------|
D|-7-----7-----8-----8-----10--10--7-----7-----|-7-----7-----5-----5-----3---3---5-----5-----|
A|-5-5-5-5-5-5-8-8-8-8-8-8-8---8---7-7-7-7-7-7-|-5-5-5-5-5-5-3-3-3-3-3-3-3---3---5-5-5-5-5-5-|
E|-5-5-5-5-5-5-6-6-6-6-6-6-8---8---5-5-5-5-5-5-|-5-5-5-5-5-5-3-3-3-3-3-3-1---1---3-3-3-3-3-3-|
     ×××   ×××   ×××   ×××   M   M   ×××   ×××     ×××   ×××   ×××   ×××   M   M   ×××   ×××
 
Kitara 2:
E|------------------------------------------|
B|---3--3-5--5-6--6-8--8-6--5-6-5h6p5-3-5-3-|
G|-2----------------------------------------|  -- 4x
D|------------------------------------------|
A|------------------------------------------|
E|------------------------------------------|
 
 
VERZ 1:
 
Dm    C
Vojna idej ...
Gm           Dm
kam naj grem naprej?
Dm            C
V malo skrito vas,
Gm             Dm
v bolj umirjen čas?
 
  F        C
A zadaj me hladi
Gm                Dm
veter jeklenih zveri,
F         C
ki poslušajo,
Gm            Dm
kar gorile tulijo:
 
 
PREHOD V REFREN:
 
Gm  A#            C
»Dovolj je vina – Mesto naj pije vodo!«
 
Kitara 1:
   Gm  A#     C
e|-----------------------|
B|-----------------------|
G|-----------------------|
D|-----------------------|
A|-----1------3---/7--7--|
E|-3---------------------|
 
Kitara 2:
                3x
e|-------------------------------|-------|
B|-------------------------------|-------|
G|-------------------------------|-------|
D|-0-15-15-0-15-0-14-0-12-0-10-0-|-14----|
A|-------------------------------|-------|
E|-------------------------------|-------|
                                      M
 
 
REFREN:
 
      A#        C         Dm      C
Mojim sanjam bo raztrgala krila
in svoboda umre.
       Gm        A#       Dm      C      
Še ljubezen bo dobila pravila,
                  Dm   C   Gm   Dm
če ne bomo rekli NE!!!
 
Obe kitari:
   A#       C        Dm                C 
e|-------------------------------------------------------------------------|
B|-------------------------------------------------------------------------|
G|-------------------------------------------------------------------------|
D|-3--------5--------7--------7--------5--------5--------5--------5--------|
A|-1---1--1-3---3--3-5---5--5-5---5--5-3---3--3-3---3--3-3---3--3-3---3--3-|
E|-1---1--1-3---3--3-5---5--5-5---5--5-3---3--3-3---3--3-3---3--3-3---3--3-|
       ××××     ××××     ××××     ××××     ××××     ××××     ××××     ××××
 
   Gm       A#       Dm               C 
e|-----------------------------------------------------|
B|-----------------------------------------------------|
G|-----------------------------------------------------|
D|-5--------3--------7--------7-------5--------5-------|
A|-5---5--5-1---1--1-5---5--5-5-------3---3--3-3-------|
E|-3---3--3-1---1--1-5---5--5-5-------3---3--3-3-------|
       ××××     ××××     ××××             ××××
 
 
Izhod iz refrena:
 
Kitara 1:
   Dm       C        Gm       Dm
e|-------------------------------------|
B|-------------------------------------|
G|-------------------------------------|
D|-7--------5--------5--------7--------|
A|-5--------3--------5--------5--------|
E|-5--------3--------3--------5--------|
 
Kitara 2:
                              2x
e|-------------------------------------------------------------|----------|
B|-------------------------------------------------------------|----------|
G|-------------------------------------------------------------|----------|
D|-0-15-15-0-0-15-14-0-12-0-10-0-0-15-15-0-15-0-14-0-12-0-10-0-|-7--------|
A|-------------------------------------------------------------|----------|
E|-------------------------------------------------------------|----------|
                                                                 ¤
 
 
VERZ 2:
 
Dm      C
Vojna idej
 Gm        Dm
kuje utrujene.
A#      C
Vojna idej
 Gm        Dm
misli prepove.
 
 F         C
Velike ljudi
       Gm        Dm
dobro vino radosti ...
   F           C
A voda skozi hlev
      Gm          Dm
bo odnesla ves plevel!
 
 
PREHOD V MOST:
 
Kitara 1:
   Dm       Gm             C
e|----------------------------------|
B|----------------------------------|
G|----------------------------------|  -- 2x
D|-7--------5--------------5--------|
A|-5--------5--------------3--------|
E|-5--------3--------------3--------|
 
Kitara 2:
e|-------------------------------------------------------------|
B|-------------------------------------------------------------|
G|-------------------------------------------------------------|  -- 2x
D|-19-15-0-19-15-0-17-15-0-17-15-0-17-15-17-15-17-14-0-17-14-0-|
A|-------------------------------------------------------------|
E|-------------------------------------------------------------|
 
 
MOST:
 
Dm  Gm  C
Dm  Gm           C
  Dovolj je vina.
Dm  Gm  C
Dm  Gm           C
  Dovolj je vina.
Dm     Gm        C
Nas nahrani Voda-Vino
Dm   Gm        C   
nam obarva mesečino.
Dm     Gm        C
Nas nahrani Voda-Vino
Dm   Gm        C   
nam obarva mesečino.
Dm     Gm        C
Nas nahrani Voda-Vino
Dm   Gm        C   
nam obarva mesečino.
 
Kitara 1:
   Dm          Gm                  C
e|---------------------------------------------|
B|---------------------------------------------|
G|---------------------------------------------|  -- 12x
D|---------------------------------------------|  palm muted
A|-5-5-5-5-5-5-5-5-5-5-5-5-5-5-5-5-3-3-3-3-3-3-|
E|-5-5-5-5-5-5-3-3-3-3-3-3-3-3-3-3-3-3-3-3-3-3-|
 
Kitara 2:
e|-------------------------------------------------------------|
B|-------------------------------------------------------------|
G|-------------------------------------------------------------|  -- 10x
D|-19-15-0-19-15-0-17-15-0-17-15-0-17-15-17-15-17-14-0-17-14-0-|  palm muted
A|-------------------------------------------------------------|
E|-------------------------------------------------------------|
 
e|-------------------------------------------------------------------------|
B|-------------------------------------------------------------------------|
G|-19-0-19-0-19-0-17-0-0-15-14-12-14-15-14-0-15-0-14-0-12-0-14-14-14-14-14-|
D|-------------------------------------------------------------------------|
A|-------------------------------------------------------------------------|
E|-------------------------------------------------------------------------|
 
 
PREHOD V REFREN 2:
 
Gm  A#             C
»Dovolj je vina – Naj še kdo reče tako!«
 
Kitara 1:
   Gm  A#     C
e|-----------------------|
B|-----------------------|
G|-----------------------|
D|-----------------------|
A|-----1------3---/7--7--|
E|-3---------------------|
 
Kitara 2:
                3x
e|-------------------------------|-------|
B|-------------------------------|-------|
G|-------------------------------|-------|
D|-0-15-15-0-15-0-14-0-12-0-10-0-|-14----|
A|-------------------------------|-------|
E|-------------------------------|-------|
                                      M
 
 
REFREN 2:
 
Gm  Am  Gm
Dm   A#    F     Am     Dm   A#  F     Am
Ne ubijam sanj! Ravno zato, ker nisem junak!
Dm     C      F   Gm       Dm    C  F   Gm
Čas ustavil vsaj malo bom zdaj, da zajamem zrak!
Dm   A#    F     Am     Dm   A#  F     Am
Ne ubijam sanj! Ravno zato, ker nisem junak!
Dm     C      F   Gm       Dm    C  F   Gm
Čas ustavil vsaj malo bom zdaj, da zajamem zrak!
 
 
Obe kitari:
   Gm Am Gm
e|----------|
B|----------|
G|----------|
D|-5--7--5--|
A|-5--7--5--|
E|-3--5--3--|
 
                     2x                                              2x
   Dm          A#          F       Am            Dm          C           F       Gm
e|---------------------------------------------|---------------------------------------------|
B|---------------------------------------------|---------------------------------------------|
G|---------------------------------------------|---------------------------------------------|  -- 2x
D|-7-7-7-7-7-7-8-8-8-8-8-8-10--10--7-7-7-7-7-7-|-7-7-7-7-7-7-5-5-5-5-5-5-3---3---5-5-5-5-5-5-|
A|-5-5-5-5-5-5-8-8-8-8-8-8-8---8---7-7-7-7-7-7-|-5-5-5-5-5-5-3-3-3-3-3-3-3---3---5-5-5-5-5-5-|
E|-5-5-5-5-5-5-6-6-6-6-6-6-8---8---5-5-5-5-5-5-|-5-5-5-5-5-5-3-3-3-3-3-3-1---1---3-3-3-3-3-3-|
 
 
Zaključek:
 
Kitara 1:
                     2x                                              2x
   Dm          A#          F       Am            Dm          C           F       Gm
e|---------------------------------------------|---------------------------------------------|
B|---------------------------------------------|---------------------------------------------|
G|---------------------------------------------|---------------------------------------------|
D|-7-----7-----8-----8-----10--10--7-----7-----|-7-----7-----5-----5-----3---3---5-----5-----|
A|-5-5-5-5-5-5-8-8-8-8-8-8-8---8---7-7-7-7-7-7-|-5-5-5-5-5-5-3-3-3-3-3-3-3---3---5-5-5-5-5-5-|
E|-5-5-5-5-5-5-6-6-6-6-6-6-8---8---5-5-5-5-5-5-|-5-5-5-5-5-5-3-3-3-3-3-3-1---1---3-3-3-3-3-3-|
     ×××   ×××   ×××   ×××   M   M   ×××   ×××     ×××   ×××   ×××   ×××   M   M   ×××   ×××
 
Kitara 2:
E|------------------------------------------|
B|---3--3-5--5-6--6-8--8-6--5-6-5h6p5-3-5-3-|
G|-2----------------------------------------|  -- 4x
D|------------------------------------------|
A|------------------------------------------|
E|------------------------------------------|
 
 
KONEC:
 
Kitara 1:
       6x
   Dm
e|---------------|-------|
B|---------------|-------|
G|---------------|-------|
D|---------------|-------|  palm muted
A|-555---55--5-5-|-555---|
E|-555---55--5-5-|-555---|
 

trzalica bar

trzalica bar

Dodaj komentar


Varnostna koda
Osveži

  Iskanje

config