tablatura akordi besedilo   Vojna Idej - akustična verzija (tab)

trzalica.com besedilo akordi tablature

Legenda ikon:


Pogoji uporabe.    

besedilo z akordi besedilo z akordi
tablature tablatura (tabulatura)
tablature tablatura za bas
tablature videolekcija

GuitarPro GutarPro (GP)
note Note (v PDF formatu)
sibelius Sibelius (SIB), itd.
..

Oglej si še:

  Vojna idej (tab)

trzalica bar

 ___________________________________________________________
|  _______________________________________________________  |
| |                                                       | |
| | IZVAJALEC: ............ Siddharta                     | |
| | PESEM: ................ Vojna idej (akustična verzija)| |
| | ALBUM: ................ Vojna idej (singel)           | |
| | LETO IZIDA: ........... 2008                          | |
| |_______________________________________________________| |
|___________________________________________________________|
 
        ## Tabbed by vecKt
 
Prijemi akordov:
Am - X02210
B  - X1333X
C  - X32010
Dm - XX0231
F  - 133211
Gm - 355333
G  - 355433
 
================================================================================================
 
        ## SIDDHARTA - VOJNA IDEJ (AKUSTIČNA VERZIJA)
 
Dm  B  F  Am
Dm  B  F  Am
Dm  C  F  Gm
Dm  C  F  Gm  G
 
                    3x
E|------------------------------------------|-------------------------------------------------|
B|---3--3-5--5-6--6-8--8-6--5-6-5h6p5-3-5-3-|---3--3-5--5-6--6-8--8-6--5-6-5h6p5-3-5-3--------|
G|-2----------------------------------------|-2----------------------------------------2------|
D|------------------------------------------|--------------------------------------------0----|
A|------------------------------------------|-------------------------------------------------|
E|------------------------------------------|-------------------------------------------------|
 
Dm    C
Vojna idej ...
Gm           Dm
kam naj grem naprej?
Dm            C
V malo skrito vas,
Gm             Dm
v bolj umirjen čas?
 
  F        C
A zadaj me hladi
Gm                Dm
veter jeklenih zveri,
F         C
ki poslušajo,
Gm            Dm
kar gorile tulijo:
 
 
 Gm        B      C
»Dovolj je vina – Mesto naj pije vodo!«
      B         C         Dm      C
Mojim sanjam bo raztrgala krila
in svoboda umre.
       Gm        B        Dm      C      
Še ljubezen bo dobila pravila,
                  Dm   C   Gm   Dm
če ne bomo rekli NE!!!
 
Dm      C
Vojna idej
 Gm        Dm
kuje utrujene.
B       C
Vojna idej
 Gm        Dm
misli prepove.
 
 F         C
Velike ljudi
       Gm        Dm
dobro vino radosti ...
   F           C
A voda skozi hlev
      Gm          Dm
bo odnesla ves plevel!
 
Dm Gm  C
Dm Gm  C
 
E|---------------------------------------------------------|
B|-15----/18-17--------------------------------------------|
G|---14----------14-\-12-14-12----12/14--15/17-15-14\12----|
D|-----------------------------12--------------------------|
A|---------------------------------------------------------|
E|---------------------------------------------------------|
 
Dm     Gm        C
Nas nahrani Voda-Vino
Dm   Gm        C   
nam obarva mesečino.
 
Dm Gm C Dm
Gm                   C
»Dovolj je vina!? – Naj še kdo reče tako!«
 
Dm   B     F     Am     Dm   B   F     Am
Ne ubijam sanj! Ravno zato, ker nisem junak!
Dm     C      F   Gm       Dm    C  F   Gm
Čas ustavil vsaj malo bom zdaj, da zajamem zrak!
 
Dm  B  F  Am
Dm  B  F  Am
Dm  C  F  Gm
Dm  C  F  Gm
 
## Tabbed by vecKt
 

trzalica bar

trzalica bar
 

Dodaj komentar


Varnostna koda
Osveži

  Iskanje

config