tablatura akordi besedilo   Y More (tab)

trzalica.com besedilo akordi tablature

Legenda ikon:


Pogoji uporabe.    

besedilo z akordi besedilo z akordi
tablature tablatura (tabulatura)
tablature tablatura za bas
tablature videolekcija

GuitarPro GutarPro (GP)
note Note (v PDF formatu)
sibelius Sibelius (SIB), itd.
..

 _______________________________________
|                                       |
| IZVAJALEC: ................ Siddharta |
| PESEM: ....................... Y More |
| ALBUM: ................. Rh- bloodbag |
|_______________________________________|
|                                       |
|   Transkripcija: AliAs                |
|   Domača stran: Trzalica.com          |
|_______________________________________|
 
LEGENDA:
M = MUTE
× = palm muted
~ = let ring
/ = slide up
\ = slide down
 
Kitara 1. = Primož
Kitara 2. = Tomi
 
UGLASITEV: D G C F A D (en ton nižje)
 
TRANSPONACIJA AKORDOV:
 
D G C F A D uglasitev ------------ standardna uglasitev 
 (navidezni prijemi)                  (pravi akordi)
 
                E   ---------------->   D
                A   ---------------->   G
                B   ---------------->   A
                C#m ---------------->   Bm
 
Tabulatura in (navidezni) akordi v besedilu, so napisani za en ton nižjo uglasitev - D G C F A D.
Za igranje po tabulaturi morate kitaro torej uglasiti za en ton nižje, če pa boste igrali samo
akorde na standardni uglasitvi, pa glejte zgornjo tabelo, ki prikazuje katere akorde je treba
prijeti namesto navideznih.
 
================================================================================================
www.trzalica.com    www.trzalica.com    www.trzalica.com    www.trzalica.com    www.trzalica.com
================================================================================================
 
 
INTRO:  (00:00 - 00:20)
 
Kitara 1.
D|-----------------|
A|-----------------|
F|-----------------|  -- 14x
C|-----2---2-------|
G|---2---2---2---2-|
D|-0-----------0---|
   ×××××××××××××××
 
 
Kitara 2.  (z delay efektom)
D|---------------------------------------------------|
A|---------7-8-7-8-7-8-7-----------------------------|
F|-----8-9---------------9-8-9-8-9-8-9-8-------------|
C|-7/9-----------------------------------10-9--------|
G|---------------------------------------------------|
D|---------------------------------------------------|
 
D|----------------------------------------------------------|
A|----------------------7-8-7-8-10-12-10-12-13-12-10-12-----|
F|--------------8-9-8-9-------------------------------------|
C|-9\7-9-10-9\7---------------------------------------------|
G|----------------------------------------------------------|
D|----------------------------------------------------------|
 
D|-------------------8-10-8------------------------------------------|
A|-------10-12-10-12--------12-10-12-10------------------------------|
F|-11-12--------------------------------12-11-12-11-9-11-12-11-9-8-9-|
C|-------------------------------------------------------------------|
G|-------------------------------------------------------------------|
D|-------------------------------------------------------------------|
 
 
VERZ 1:  (00:20 - 01:25)
 
Kitara 1.                       4x
   E                               A                                 C#m      B
D|-----------------------------------------------------------------|-------------------|
A|-----------------------------------------------------------------|-------------------|
F|-----------------------------------------------------------------|-6--------4--------|
C|-----2---2-----------2---2-------------6---6---------7---7---6---|-6--------4--------|
G|---2---2---2---2---2---2---2---2---7-9---9-----7---7---7---7---7-|-4--------2--------|
D|-0-----------0---0-----------0---5-----------5---5---------------|-------------------|
   ×××××××××××××××××××××××××××××××××××××××××××××××××××××××××××××××    ~~~~~~~~ ~~~~~M
 
      E                                   A
        Yesterday I could have done some more,
      E                               A
        and today I might even fix it all.
                     E                                            A
        It's such a quiet and emotional dance in the rain but I know,
      E                                              A
        that disappear is something you do when I'm not at home.
      C#m                                              B
        It doesn't matter now as long as we can still hold each other's hands.
 
 
Kitara 1.
   E                               A
D|-----------------------------------------------------------------|
A|-----------------------------------------------------------------|
F|-----------------------------------------------------------------|
C|-----2---2-----------2---2-------------6---6---------7---7---6---|
G|---2---2---2---2---2---2---2---2---7-9---9-----7---7---7---7---7-|
D|-0-----------0---0-----------0---5-----------5---5---------------|
   ×××××××××××××××××××××××××××××××××××××××××××××××××××××××××××××××
 
Kitara 2.  (z delay efektom)
   E                               A
D|-----------------------------------------------------------------|
A|-8-7---7---------------------------------------------------------|
F|-----9---9-8----8------------------------------------------------|
C|-------------10---10-9-7-----------6---6---6-5-4-5-4-7---7---6---|
G|---------------------------------0---9---9-------------7---7---7-|
D|-----------------------------------------------------------------|
 
 
Kitara 1.                       4x
   E                               A                                 C#m      B
D|-----------------------------------------------------------------|-------------------|
A|-----------------------------------------------------------------|-------------------|
F|-----------------------------------------------------------------|-6--------4--------|
C|-----2---2-----------2---2-------------6---6---------7---7---6---|-6--------4--------|
G|---2---2---2---2---2---2---2---2---7-9---9-----7---7---7---7---7-|-4--------2--------|
D|-0-----------0---0-----------0---5-----------5---5---------------|-------------------|
   ×××××××××××××××××××××××××××××××××××××××××××××××××××××××××××××××    ~~~~~~~~ ~~~~~M
 
      E                                      A
        I see no gray, but something is not OK.
      E                                                   A
        I see no blue, though that's how the sky should look.
                   E                                            A
        About the supersonic pain that is inside of us we complain,
      E                                              A
        but what the hell, we arent the last to be driven insane.
      C#m                                              B
        It doesn't matter now as long as we can still hold each other's hands on the bedroom floor
 
 
REFREN 1:  (01:27 - 01:49)
 
Kitara 1. začne z akordi:
   A   B   E   C#m
D|-0-------0-------|
A|-2---4---0---5---|
F|-2---4---1---6---|
C|-2---4---2---6---|
G|-0---2---2---4---|
D|---------0-------|
 
Nato obe kitari:
   A           B               E           C#m
D|-------------------------------------------------------|
A|-------------------------------------------------------|
F|-------------------------------------------------------|
C|-7--7--7-7-7-9--9-9-9--9-9-9-2--2--2-2-2-6--6----------|
G|-7--7--7-7-7-9--9-9-9--9-9-9-2--2--2-2-2-4--4--4-4-4-4-|
D|-5--5--5-5-5-7--7-7-7--7-7-7-0--0--0-0-0-4--4--4-4-4-4-|
                                                 ×××××××
 
   A           B               E           C#m
D|-------------------------------------------------------|
A|-------------------------------------------------------|
F|-------------------------------------------------------|
C|-7--7--7-7-7-9--9-9-9--9-9-9-2--2--------6--6--6-6-6-6-|
G|-7--7--7-7-7-9--9-9-9--9-9-9-2--2--2-2-2-4--4--4-4-4-4-|
D|-5--5--5-5-5-7--7-7-7--7-7-7-0--0--0-0-0-4--4--4-4-4-4-|
                                     ×××××
 
   A           B               E
D|-----------------------------------------|
A|-----------------------------------------|
F|-----------------------------------------|
C|-7--7--7-7-7-9--9-9-9--9-9-9-2--2--------|
G|-7--7--7-7-7-9--9-9-9--9-9-9-2--2--2-2-2-|
D|-5--5--5-5-5-7--7-7-7--7-7-7-0--0--0-0-0-|
                                     ×××××
 
        A             B
        Dead and dedicated,
              E                C#m
        your love of fucking "God",
         A              B           E    C#m
        dumb and happy moron being superhero.
        A           B
        Never entertain him,
                     E            C#m
        he's like a lord of human act.
        A              B             E
        Y do you need more y do you need more?
 
 
VERZ 2:  (01:50 - 02:19)
 
Kitara 1.                    4x
   E                             A                               C#m          B
D|-------------------------------------------------------------|---------------------------|
A|-------------------------------------------------------------|---------------------------|
F|-------------------------------------------------------------|---------------------------|
C|--------------------------6----------------------------------|-----2------------1-----1--|
G|-7-7-7-7---7----7-7---9--------7-7-7-7---7----7-7---9---7----|---4------------2----------|
D|-------------------------------------------------------------|-4------------2------------|
 
 
      E                                   A
        Yesterday I could have done some more,
      E                               A
        and today I might even fix it all.
                     E                                            A
        It's such a quiet and emotional dance in the rain but I know,
      E                                              A
        that disappear is something you do when I'm not at home.
        C#m              B
        I know you will disappear.
 
 
REFREN 2:  (02:19 - 03:42)
 
Obe kitari:
   A           B               E           C#m
D|-------------------------------------------------------|
A|-------------------------------------------------------|
F|-------------------------------------------------------|
C|-7--7--7-7-7-9--9-9-9--9-9-9-2--2--------6--6--6-6-6-6-|
G|-7--7--7-7-7-9--9-9-9--9-9-9-2--2--2-2-2-4--4--4-4-4-4-|
D|-5--5--5-5-5-7--7-7-7--7-7-7-0--0--0-0-0-4--4--4-4-4-4-|
                                     ×××××
 
   A           B               E           C#m
D|-------------------------------------------------------|
A|-------------------------------------------------------|
F|-------------------------------------------------------|
C|-7--7--7-7-7-9--9-9-9--9-9-9-2--2--2-2-2-6--6----------|
G|-7--7--7-7-7-9--9-9-9--9-9-9-2--2--2-2-2-4--4--4-4-4-4-|
D|-5--5--5-5-5-7--7-7-7--7-7-7-0--0--0-0-0-4--4--4-4-4-4-|
                                                 ×××××××
 
   A           B               E           C#m
D|-------------------------------------------------------|
A|-------------------------------------------------------|
F|-------------------------------------------------------|
C|-7--7--7-7-7-9--9-9-9--9-9-9-2--2--------6--6--6-6-6-6-|
G|-7--7--7-7-7-9--9-9-9--9-9-9-2--2--2-2-2-4--4--4-4-4-4-|
D|-5--5--5-5-5-7--7-7-7--7-7-7-0--0--0-0-0-4--4--4-4-4-4-|
                                     ×××××
 
   A           B               E           C#m
D|---------------------------------------------------|
A|---------------------------------------------------|
F|---------------------------------------------------|
C|-7--7--7-7-7-9--9-9-9--9-9-9-2--2--------6---------|
G|-7--7--7-7-7-9--9-9-9--9-9-9-2--2--2-2-2-4---------|
D|-5--5--5-5-5-7--7-7-7--7-7-7-0--0--0-0-0-4---------|
                                     ×××××  ~~~~~~~~M
 
        A             B
        Dead and dedicated,
              E                C#m
        your love of fucking "God",
         A              B           E    C#m
        dumb and happy moron being superhero.
        A           B
        Never entertain him,
                     E            C#m
        he's like a lord of human act.
        A              B             E       C#m
        Y do you need more y do you need more?
 
 
Nato začne Kitara 1. z akordi:
   A   B   E   C#m
D|-0-------0-------|
A|-2---4---0---5---|
F|-2---4---1---6---|
C|-2---4---2---6---|
G|-0---2---2---4---|
D|---------0-------|
 
 
        A             B
        Dead and dedicated,
              E                C#m
        your love of fucking "God",
         A              B           E    C#m
        dumb and happy moron being superhero.
        A           B
        Never entertain him,
                     E            C#m
        he's like a lord of human act.
                     |>B             E       C#m <--- od tu naprej spet obe kitari (glej tabulaturo spodaj)
        Y do you need more y do you need more?
 
 
Obe kitari:
               B               E           C#m
D|-------------------------------------------------------|
A|-------------------------------------------------------|
F|-------------------------------------------------------|
C|-------------9--9-9-9--9-9-9-2--2--------6--6--6-6-6-6-|
G|-------------9--9-9-9--9-9-9-2--2--2-2-2-4--4--4-4-4-4-|
D|-------------7--7-7-7--7-7-7-0--0--0-0-0-4--4--4-4-4-4-|
                                     ×××××
 
   A           B               E           C#m
D|-------------------------------------------------------|
A|-------------------------------------------------------|
F|-------------------------------------------------------|
C|-7--7--7-7-7-9--9-9-9--9-9-9-2--2--------6--6--6-6-6-6-|
G|-7--7--7-7-7-9--9-9-9--9-9-9-2--2--2-2-2-4--4--4-4-4-4-|
D|-5--5--5-5-5-7--7-7-7--7-7-7-0--0--0-0-0-4--4--4-4-4-4-|
                                     ×××××
 
   A           B               E           C#m
D|-------------------------------------------------------|
A|-------------------------------------------------------|
F|-------------------------------------------------------|
C|-7--7--7-7-7-9--9-9-9--9-9-9-2--2--2-2-2-6--6----------|
G|-7--7--7-7-7-9--9-9-9--9-9-9-2--2--2-2-2-4--4--4-4-4-4-|
D|-5--5--5-5-5-7--7-7-7--7-7-7-0--0--0-0-0-4--4--4-4-4-4-|
                                                 ×××××××
 
   A           B               E           C#m
D|-------------------------------------------------------|
A|-------------------------------------------------------|
F|-------------------------------------------------------|
C|-7--7--7-7-7-9--9-9-9--9-9-9-2--2--------6--6--6-6-6-6-|
G|-7--7--7-7-7-9--9-9-9--9-9-9-2--2--2-2-2-4--4--4-4-4-4-|
D|-5--5--5-5-5-7--7-7-7--7-7-7-0--0--0-0-0-4--4--4-4-4-4-|
                                     ×××××
 
                                      12x
   A           B                 E
D|-----------------------------|----------------|
A|-----------------------------|----------------|
F|-----------------------------|----------------|
C|-7--7--7-7-7-9--9-9-9--9-9-9-|-2--2-----------|
G|-7--7--7-7-7-9--9-9-9--9-9-9-|-2--2--2-2-2----|
D|-5--5--5-5-5-7--7-7-7--7-7-7-|-0--0--0-0-0-4--|
                                       ×××××
 
 
                       B             E       C#m
        Y do you need more y do you need more.
        A             B
        Dead and dedicated,
              E                C#m
        your love of fucking "God",
         A              B           E    C#m
        dumb and happy moron being superhero.
        A           B
        Never entertain him,
                     E            C#m
        he's like a lord of human act.
        A              B             E
        Y do you need more y do you need more,
        y do you need more, y do you need more?
 
 
OUTRO:  (03:43 - 04:00)
 
Kitara 2.  (z delay efektom)
D|---------------------------------------------------|
A|---------7-8-7-8-7-8-7-----------------------------|
F|-----8-9---------------9-8-9-8-9-8-9-8-------------|
C|-7/9-----------------------------------10-9--------|
G|---------------------------------------------------|
D|---------------------------------------------------|
 
D|----------------------------------------------------------|
A|----------------------7-8-7-8-10-12-10-12-13-12-10-12-----|
F|--------------8-9-8-9-------------------------------------|
C|-9\7-9-10-9\7---------------------------------------------|
G|----------------------------------------------------------|
D|----------------------------------------------------------|
 
D|-------------------8-10-8------------------------------------------|
A|-------10-12-10-12--------12-10-12-10------------------------------|
F|-11-12--------------------------------12-11-12-11-9-11-12-11-9-8-9-|
C|-------------------------------------------------------------------|
G|-------------------------------------------------------------------|
D|-------------------------------------------------------------------|
 

trzalica bartrzalica bar

 

 

 

Dodaj komentar


Varnostna koda
Osveži

  Iskanje

config