tablatura akordi besedilo   Zoo 69 (tab)

trzalica.com besedilo akordi tablature

Legenda ikon:


Pogoji uporabe.    

besedilo z akordi besedilo z akordi
tablature tablatura (tabulatura)
tablature tablatura za bas
tablature videolekcija

GuitarPro GutarPro (GP)
note Note (v PDF formatu)
sibelius Sibelius (SIB), itd.
..

 _______________________________________
|                                       |
| IZVAJALEC: ................ Siddharta |
| PESEM: ....................... Zoo 69 |
| ALBUM: ......................... Nord |
|_______________________________________|
|                                       |
|   Transkripcija: AliAs                |
|   Domača stran: Trzalica.com          |
|_______________________________________|
 
================================================================================================
 
kitara 1. = Primož
kitara 2. = Tomi
 
================================================================================================
www.trzalica.com    www.trzalica.com    www.trzalica.com    www.trzalica.com    www.trzalica.com
================================================================================================
 
INTRO: (00:00 - 00:21) 
 kitara 1.
   A                   C#m
e|----------------------------------------|
B|----------------------------------------|
G|----------------------------------------| --4x
D|-7----7-7----7-7-----6----6-6----6-6----|
A|-7----7-7----7-7-----4----4-4----4-4----|
E|-5--0-5-5--0-5-5-0---4--0-4-4--0-4-4-0--|
         M      M            M      M
 
 kitara 2.   (00:11 - 00:21)
      A            C#m
e|---------------------------|
B|---------------------------|
G|-2-/-6--------2-/-6--------| --2x
D|-2-/-7--------2-/-6--------|
A|---------------------------|
E|---------------------------|
        ~~~~~~~~     ~~~~~~~~
 
VERZ 1: (00:22 - 00:37)
 kitara 1.
   A                   C#m
e|----------------------------------------|
B|----------------------------------------|
G|----------------------------------------| --3x
D|----------------------------------------|
A|----------------------------------------|
E|-5--0-5-5--0-5-5-0---4--0-4-4--0-4-4-0--|
         M      M            M      M
 
        A
        Grizem vratove volkovom, 
        C#m
        grizem v rebra pitona, 
        A
        gledam v žrelo vampirju, 
        C#m
        jezik sem kobri pojedel, 
        A
        spim s krokodili v objemu, 
        C#m
        živ sem ostal vendar vem,
 
 
REFREN 1: (00:38 - 00:48)
 kitari 1 in 2.
   Bm    F#m      E
e|-------------------------|
B|-------------------------|
G|-4--4--------------------| --2x
D|-4--4--4-4-4-4--2--------|
A|-2--2--4-4-4-4--2--------|
E|-------2-2-2-2--0--------|
                   ~~~~~~~~
 
               Bm           F#m
        da mi zajec zlomi vrat, 
               E
        če mu damico podiram 
               Bm        F#m        E
        in verjamem da vsak tip je tak. 
 
 
PO REFRENU 1: (00:48 - 00:59)
 kitara 1. 
   A                   C#m
e|----------------------------------------|
B|----------------------------------------|
G|----------------------------------------| --2x
D|-7----7-7----7-7-----6----6-6----6-6----|
A|-7----7-7----7-7-----4----4-4----4-4----|
E|-5--0-5-5--0-5-5-0---4--0-4-4--0-4-4-0--|
         M      M            M      M
 
 kitara 2.
      A            C#m
e|---------------------------|
B|---------------------------|
G|-2-/-6--------2-/-6--------| --2x
D|-2-/-7--------2-/-6--------|
A|---------------------------|
E|---------------------------|
        ~~~~~~~~     ~~~~~~~~
 
 
VERZ 2:  (00:59 - 01:20)
 kitara 1.
   A                   C#m                 Bm                  F#m
e|--------------------------------------------------------------------------------|
B|--------------------------------------------------------------------------------|
G|--------------------------------------------------------------------------------| -2x
D|--------------------------------------------------------------------------------|
A|--------------------------------------------------------------------------------|
E|-5--0-5-5--0-5-5-0---4--0-4-4--0-4-4-0---7--0-7-7--0-7-7-0---2--0-2-2--0-2-2-0--|
         M      M            M      M            M      M            M      M
 
        A
        Pil sem bencin namest čajev 
        C#m
        jedu sem kamne in saje 
        Bm
        dihu sem peno in eter 
        F#m
        pluvu in scal sem v veter 
        A
        dajem ljudem svinarijo 
        C#m
        kradem od njih iluzijo 
        Bm
        nos sem razbil generalu 
        F#m
        živ sem ostal vendar vem, 
 
 
REFREN 2: (01:21 - 01:42)
 kitari 1 in 2.
   Bm    F#m      E
e|-------------------------|
B|-------------------------|
G|-4--4--------------------| --4x
D|-4--4--4-4-4-4--2--------|
A|-2--2--4-4-4-4--2--------|
E|-------2-2-2-2--0--------|
                   ~~~~~~~~
 
               Bm           F#m
        da mi zajec zlomi vrat, 
               E
        če mu damico podiram 
               Bm        F#m        E
        in verjamem da vsak tip je tak. 
                  Bm            F#m
        In če se zajec gre razvrat 
               E
        in mi damico podira, 
              Bm          F#m
        ga zadavim z golimi rokami 
         E
        dobr vemo kaj vse nam
 
 
PO REFRENU 2:  (01:42 - 02:03) 
 kitara 2.  za ritem brenkanja akordov poslušaj pesem.
   A     C#m   A     C#m   D     A     D     C#m
e|-------------------------------------------------|
B|-------------------------------------------------|
G|-------6-----------------------------------------| --1x
D|-7-----6-----7-----6-----7-----7-----7-----6-----|
A|-7-----4-----7-----4-----5-----7-----5-----4-----|
E|-5-----------5-----4-----5-----5-----5-----4-----|
 
 kitara 1.  za ritem brenkanja prijemov poslušaj pesem.
   A
e|---------------------------------------------------------------|
B|-1414141414--1414--12121212101010109-9-9-9-9-------------------|
G|---------------------------------------------9-9--9-9-9--9-9-9-|
D|-1111111111--1111--9-9-9-9-7-7-7-7-6-6-6-6-6-------------------| --2x
A|---------------------------------------------7-7--7-7-7--7-7-7-|
E|---------------------------------------------------------------|
 
e|------------------------------------------------------------------------------------------------|
B|-1515151515-------------------1414141414--10-1010-101010--1515151515151515151515151717171717...-|
G|-------------11--111113--1313-------------------------------------------------------------------|
D|-1212121212-------------------1111111111--7--7-7--7-7-7---1212121212121212121212121414141414...-|
A|-------------9---9-9-11--1111-------------------------------------------------------------------|
E|------------------------------------------------------------------------------------------------|
 
         A                             C#m
        daje lunin ples v temi sredi zvezd 
         A                            C#m
        hoja nad oblaki v ritmu malih angelov, 
           D
        z golimi telesi dramimo misli 
            A
        in pijemo sokove v čast rodov, 
          D                                C#m
        vse je v dejanjih vse je lepo in prav. 
 
 
VERZ 3:  (02:04 - 02:25)
 kitara 1.
   A                   C#m                 G                   F#
e|--------------------------------------------------------------------------------|
B|--------------------------------------------------------------------------------|
G|--------------------------------------------------------------------------------| --2x
D|--------------------------------------------------------------------------------|
A|--------------------------------------------------------------------------------|
E|-5--0-5-5--0-5-5-0---4--0-4-4--0-4-4-0---3--0-3-3--0-3-3-0---2--0-2-2--0-2-2-0--|
         M      M            M      M            M      M            M      M
 
        A
        Bil sem pripet na mašine, 
        C#m
        mogu sem žret aspirine, 
        G
        pljuča so nehala delat, 
        F#
        mislu sem si ne me jebat, 
        A
        strah je bil zame podložnik, 
        C#m
        pamet sem stresel na krožnik, 
        G                        F#
        klin sem obesu na steno, a živ sem ostal.
 
 
BRIDGE:  (02:25 - 03:08) 
 kitara 1. in 2.
   A                               E     
e|-----------------------------------------------------------------|
B|-----------------------------------------------------------------| 
G|-----------------------------------------------------------------| --\
D|-----------------------------------------------------------------|   |
A|-0-0-0-2-2-4-4-4-4-0-0-2-2-4-4-4---------------------------------|   |
E|---------------------------------0-0-0-2-2-4-4-4-4-0-0-2-2-4-4-4-|   |
                                                                       |
   Bm                              F#m                                 |-- 4x
e|-----------------------------------------------------------------|   |
B|-----------------------------------------------------------------|   |
G|-----------------------------------------------------------------|   |
D|-----------------------------------------------------------------| --/
A|-2-2-2-4-4-5-5-5-5-2-2-4-4-5-5-5---------------------------------|
E|---------------------------------2-2-2-4-4-5-5-5-5-2-2-4-4-5-5-5-|
 
 
KONEC BRIDGE-a / INTRO 2:  (03:09 - 03:19)
 kitara 1.
   A                   C#m
e|----------------------------------------|
B|----------------------------------------|
G|----------------------------------------| --2x
D|-7----7-7----7-7-----6----6-6----6-6----|
A|-7----7-7----7-7-----4----4-4----4-4----|
E|-5--0-5-5--0-5-5-0---4--0-4-4--0-4-4-0--|
         M      M            M      M
 
 
PO BRIDGE-u:   (03:19 - 04:02)         
 kitara 2.  za ritem udarjanja akordov poslušaj pesem.
   A     C#m   A     C#m   D     A     D     C#m
e|-------------------------------------------------|
B|-------------------------------------------------|
G|-------6-----------------------------------------| --2x
D|-7-----6-----7-----6-----7-----7-----7-----6-----|
A|-7-----4-----7-----4-----5-----7-----5-----4-----|
E|-5-----------5-----4-----5-----5-----5-----4-----|
 
 kitara 1. 2x  za ritem brenkanja prijemov poslušaj pesem.
   A
e|---------------------------------------------------------------|
B|-1414141414--1414--12121212101010109-9-9-9-9-------------------|
G|---------------------------------------------9-9--9-9-9--9-9-9-|
D|-1111111111--1111--9-9-9-9-7-7-7-7-6-6-6-6-6-------------------| --2x
A|---------------------------------------------7-7--7-7-7--7-7-7-|
E|---------------------------------------------------------------|
 
e|------------------------------------------------------------------------------------------------|
B|-1515151515-------------------1414141414--10-1010-101010--1515151515151515151515151717171717...-|
G|-------------11--111113--1313-------------------------------------------------------------------|
D|-1212121212-------------------1111111111--7--7-7--7-7-7---1212121212121212121212121414141414...-|
A|-------------9---9-9-11--1111-------------------------------------------------------------------|
E|------------------------------------------------------------------------------------------------|
 
         A                              C#m ----\
        to je lunin ples v temi sredi zvezd      \
         A                            C#m         \
        hoja nad oblaki v ritmu malih angelov,    |
           D                                      | -- 2x
        z golimi telesi dramimo misli             |
            A                                     |
        in pijemo sokove v čast rodov,            /
          D                                C#m   /
        vse je v dejanjih vse je lepo in prav. -/
 
 
OUTRO:  (04:03 - 04:33)
 kitara 1. in 2.
   A
e|---------------------|
B|---------------------|
G|---------------------|  -- ponavlja se do konca pesmi.
D|-7----7-7----7-7-----|
A|-7----7-7----7-7-----|
E|-5--0-5-5--0-5-5-0---|
         M      M
 

trzalica bartrzalica bar

Dodaj komentar


Varnostna koda
Osveži

  Iskanje

config