tablatura akordi besedilo   Bel labod (tab)

trzalica.com besedilo akordi tablature

Legenda ikon:


Pogoji uporabe.    

besedilo z akordi besedilo z akordi
tablature tablatura (tabulatura)
tablature tablatura za bas
tablature videolekcija

GuitarPro GutarPro (GP)
note Note (v PDF formatu)
sibelius Sibelius (SIB), itd.
..

 
 ___________________________________________________________
|  _______________________________________________________  |
| |                                                       | |
| | IZVAJALEC: .............. Siddharta                   | |
| | PESEM: .................. Bel labod                   | |
| | ALBUM: .................. VI                          | |
| | LETO IZIDA: ............. 2011                        | |
| | DOMAČA STRAN: ........... www.siddharta.net           | |
| |_______________________________________________________| |
| |                                                       | |
| |           Transkripcija: AliAs / maj, 2015            | |
| |                                                       | |
| |            w w w . t r z a l i c a . c o m            | |
| |_______________________________________________________| |
|___________________________________________________________|
 
===========================================================================================================
 
  -- PRIJEMI AKORDOV --
 
Uvod, Refren, Zaključek:
     A5   - 5 7 7 X X X
     A#5  - 6 8 8 X X X
     A#   - X 1 3 3 3 X
     A#/A - 5 8 7 X X X
     C    - X 3 5 5 5 X
     C5   - X 3 5 5 X X
     Dm   - X 5 7 7 6 X
     D5   - X 5 7 7 X X
     D#5  - X 6 8 8 X X
     F    - 1 3 3 2 1 1
     F5   - 1 3 3 X X X
     Gm   - 3 5 5 3 3 3
     G5   - 3 5 5 X X X
     X    - Odprte ali zadušene strune
 
Verz:
     Gm   - 3 5 5 3 3 3
     D#   - X 6 8 8 8 X
     G#   - 4 6 6 X X X
 
Most:
     Gm   - X 10 12 12 11 X
     F    - X 8 10 10 10 X
     A#   - 6 8 8 7 6 6
     C    - 8 10 10 9 8 8
     Dm   - X 5 7 7 6 X
 
===========================================================================================================
www.trzalica.com     www.trzalica.com     www.trzalica.com     www.trzalica.com     www.trzalica.com
===========================================================================================================
 
 
Uvod:
        G5  A5  A#5   X   -- 4x
 
 
Verz:
     Gm
        Soj prestrašenih oči
     D#
        Tam sem vedel, da si ti
     Gm
        Daleč stran se čutiva
     D#
        Tu narazen padava
        G#
        Ista pesem isti zvok
                          Gm
        Nekje na severu je razlog
 
                                                                                             Trzalica.COM
Refren:
        G5    A5 A#5
        Silen vihar
        G5 A5  A#5
        Burna noč
        D5 C5 D5 D#5
        Odne-se me
        C5  D5 D#5
        bel labod
        F5  G5 A5 A#5
        Nič se ne boj
        G5    A5  A#5  X
        kmalu bom tvoj
 
     Gm        F           A#           C
        Na koncu sveta se ti boš skrivala
     Gm            F            A#     Dm
        A jaz bom našel pot do tja
     Gm         F               A#         C
        Povej vsem, ki bi te z medom hranili
     Gm           F           A#  Dm
        Da ni več upanja za njih, ni več upanja
 
        G5  F5  A#5  A#/A   2x
 
   Primož:
e|-17------13-----------------17------13------17--15----|
H|-----15------15-----------------15------15------------|
G|-----------------15---14------------------------------|
D|------------------------------------------------------|
A|------------------------------------------------------|
E|------------------------------------------------------|
 
                                                                                             Trzalica.COM
Verz:
     Gm
        Komu smejejo se vsi
     D#
        Vso ljubezen sem polil
     Gm                     D#
        Vso ljubezen sem polil!!!
        G#
        Kdo ste vi, ki pijete vse to,
                    Gm
        kar del mene je in bo ostalo tu
     D#
        Tu!
        G#
        Ista pesem isti zvok
        Nad mene planil je
 
 
Refren:
        G5    A5 A#5
        Silen vihar
        G5 A5  A#5
        Burna noč
        D5 C5 D5 D#5
        Odne-se me
        C5  D5 D#5
        bel labod
        F5  G5 A5 A#5
        Nič se ne boj
        G5    A5  A#5  X
        kmalu bom tvoj
                                                                                             Trzalica.COM
     Gm        F           A#           C
        Na koncu sveta se ti boš skrivala
     Gm            F            A#     Dm
        A jaz bom našel pot do tja
     Gm         F               A#         C
        Povej vsem, ki bi te z medom hranili
     Gm           F           A#  Dm
        Da ni več upanja za njih, ni več upanja
 
        G5  F5  A#5  A#/A   2x
 
   Primož:
e|-17------13-----------------17------13------17--15----|
H|-----15------15-----------------15------15------------|
G|-----------------15---14------------------------------|  2x
D|------------------------------------------------------|
A|------------------------------------------------------|
E|------------------------------------------------------|
 
   Tomi:
e|---------------------------------------------------------------------|
H|---------------------------------------------------------------------|
G|---------------------------------------------------------------------|
D|---------------------------------------------------------------------|
A|-10-10-10-10-5-5-5-5-8-8-8-8-3-3-3-3-5-5-5-5-1-1-1-1-3-3-0-0-1-1-----|
E|-----------------------------------------------------------------1-1-|
 
e|-----------------------------------------------------------------|
H|-----------------------------------------------------------------|
G|-----------------------------------------------------------------|
D|-----------------------------------------------------------------|
A|---------1-1-1-1-0-0-0-0-3-3-3-3-1-1-1-1-5-5-5-5-3-3-6-6-5-5-8-8-|
E|-3-3-3-3---------------------------------------------------------|
 
                                                                                             Trzalica.COM
Most:
        Gm  F  A#  C    \_ 2x
        Gm  F  A#  Dm   /
 
 
Refren:
     Gm        F           A#           C
        Na koncu sveta se ti boš skrivala
     Gm            F            A#     Dm
        A jaz bom našel pot do tja
     Gm         F               A#         C
        Povej vsem, ki bi te z medom hranili
     Gm           F           A#  Dm
        Da ni več upanja za njih, ni več upanja
 
        G5  F5  A#5  A#/A   2x
 
   Primož:
e|-17------13-----------------17------13------17--15----|
H|-----15------15-----------------15------15------------|
G|-----------------15---14------------------------------|  4x
D|------------------------------------------------------|
A|------------------------------------------------------|
E|------------------------------------------------------|
 
   Tomi:
e|---------------------------------------------------------------------|
H|---------------------------------------------------------------------|
G|---------------------------------------------------------------------|
D|---------------------------------------------------------------------|
A|-10-10-10-10-5-5-5-5-8-8-8-8-3-3-3-3-5-5-5-5-1-1-1-1-3-3-0-0-1-1-----|
E|-----------------------------------------------------------------1-1-|
 
e|-----------------------------------------------------------------|
H|-----------------------------------------------------------------|
G|-----------------------------------------------------------------|
D|-----------------------------------------------------------------|
A|---------1-1-1-1-0-0-0-0-3-3-3-3-1-1-1-1-5-5-5-5-3-3-6-6-5-5-8-8-|
E|-3-3-3-3---------------------------------------------------------|
 
                                                                                             Trzalica.COM
Zaključek:
 
   Primož: 
e|-----------------|----------------|
H|-----------------|----------------|
G|-----------------|----------------|
D|-5--5--5--5--7---|-5--5--5--5-5-5-|
A|-5--5--5--5--7---|-5--5--5--5-5-5-|
E|-3--3--3--3--5---|-3--3--3--3-3-3-|
 
   Tomi:
e|-------------------------------------|------------------------------------|
H|-------------------------------------|------------------------------------|
G|-12--12-12-12--12-12-12--12-12-12-15-|-12--12-12-12--12-12-15-15-15-15-12-|
D|-------------------------------------|------------------------------------|
A|-10--10-10-10--10-10-10--10-10-10-13-|-10--10-10-10--10-10-13-13-13-13-10-|
E|-------------------------------------|------------------------------------|
 
 
 

trzalica bar

trzalica bar

Dodaj komentar


Varnostna koda
Osveži

  Iskanje

config