tablatura akordi besedilo   Bonsai (tab)

trzalica.com besedilo akordi tablature

Legenda ikon:


Pogoji uporabe.    

besedilo z akordi besedilo z akordi
tablature tablatura (tabulatura)
tablature tablatura za bas
tablature videolekcija

GuitarPro GutarPro (GP)
note Note (v PDF formatu)
sibelius Sibelius (SIB), itd.
..

 
 ___________________________________________________________
|  _______________________________________________________  |
| |                                                       | |
| | IZVAJALEC: .............. Siddharta                   | |
| | PESEM: .................. Bonsai                      | |
| | ALBUM: .................. VI                          | |
| | LETO IZIDA: ............. 2011                        | |
| | SPLETNA STRAN: .......... www.siddharta.net           | |
| |_______________________________________________________| |
| |                                                       | |
| |           Transkripcija: AliAs / maj, 2015            | |
| |                                                       | |
| |            w w w . t r z a l i c a . c o m            | |
| |_______________________________________________________| |
|___________________________________________________________|
 
===========================================================================================================
www.trzalica.com     www.trzalica.com     www.trzalica.com     www.trzalica.com     www.trzalica.com
===========================================================================================================
 
 
ZAČETEK:
 
Primož:
e|-X-X--X-X-X--X-X-X--X-X-X-X-X-|
H|-X-X--X-X-X--X-X-X--X-X-X-X-X-|
G|-X-X--X-X-X--X-X-X--X-X-X-X-X-|
D|-X-X--X-X-X--X-X-X--X-X-X-X-X-|
A|-X-X--X-X-X--X-X-X--X-X-X-X-X-|
E|-X-X--X-X-X--X-X-X--X-X-X-X-X-|
 
Tomi:
e|-X-X--X-X-X--X-X-X--X-X-X-X-X-|-9-9--9-X-X--X-X-X--X-X-X-X-X-|
H|-X-X--X-X-X--X-X-X--X-X-X-X-X-|-9-10-10X-X--X-X-X--X-X-X-X-X-|
G|-X-X--X-X-X--X-X-X--X-X-X-X-X-|-9-11-11X-X--X-X-X--X-X-X-X-X-|
D|-X-X--X-X-X--X-X-X--X-X-X-X-X-|-9-11-11X-X--X-X-X--X-X-X-X-X-|
A|-X-X--X-X-X--X-X-X--X-X-X-X-X-|-9-9--9-X-X--X-X-X--X-X-X-X-X-|
E|-X-X--X-X-X--X-X-X--X-X-X-X-X-|-9-9--9-X-X--X-X-X--X-X-X-X-X-|
 
e|-9-9--9-9-9--9-9-9--9-9-9-9-9--|
H|-9-10-109-10-109-10-109-101010-|
G|-9-11-119-11-119-11-119-111111-|
D|-9-11-119-11-119-11-119-111111-|
A|-9-9--9-9-9--9-9-9--9-9-9-9-9--|
E|-9-9--9-9-9--9-9-9--9-9-9-9-9--|
                                                                                             Trzalica.COM
 
Primož:
e|------------------------------|
H|------------------------------|
G|------------------------------|
D|---4--4---4--4---4--4-7-7-7-7-|
A|---4--4---4--4---4--4-7-7-7-7-|
E|-0-2--2-0-2--2-0-2--2-5-5-5-5-|
 
Tomi:
e|-9-9--9-9-9--9-9-9--9-9-9-9-9--|-----------------------------------------------------------------|
H|-9-10-109-10-109-10-109-101010-|-9-9-9-9-9-9-9-9-121212121212121210101010101010109-9-9-9-9-9-9-9-|
G|-9-11-119-11-119-11-119-111111-|-9-9-9-9-9-9-9-9-------------------------------------------------|
D|-9-11-119-11-119-11-119-111111-|-----------------9-9-9-9-9-9-9-9-7-7-7-7-7-7-7-7-6-6-6-6-6-6-6-6-|
A|-9-9--9-9-9--9-9-9--9-9-9-9-9--|-----------------------------------------------------------------|
E|-9-9--9-9-9--9-9-9--9-9-9-9-9--|-----------------------------------------------------------------|
 
 
PREHOD V VERZ IN VERZ:
 
Primož & Tomi:
e|------------------X-X-X------X--X-X--X-X----|-------------|
H|------------------X-X-X------X--X-X--X-X----|-------------|
G|------------------X-X-X------X--X-X--X-X----|-------------|
D|-7-7-7-6-6-6-4--4-X-X-X-2--2-X--X-X--X-X----|-7-7-7-9-9-9-|
A|-7-7-7-6-6-6-4--4-X-X-X-2--2-X--X-X--X-X----|-7-7-7-9-9-9-|
E|-5-5-5-4-4-4-2--2-X-X-X-0--0-X--X-X--X-X--0-|-5-5-5-7-7-7-|
                                                                                             Trzalica.COM
 
REFREN:
 
Primož & Tomi:
e|-------------------------------------------------------------------------------------------------|
H|-------------------------------------------------------------------------------------------------|
G|-------------------------------------------------------------9-9-9-9-9-9-9-9-9-9-9-9-9-9-9-9-9-9-|
D|-7-7-7-7-7-7-7-7-7-7-7-7-7-7-7-7-7-7-7-7-7-7-7-7-7-7-7-7-7-7-9-9-9-9-9-9-9-9-9-9-9-9-9-9-9-9-9-9-|
A|-5-5-5-5-5-5-4-4-4-4-4-4-4-4-4-4-4-4-4-4-4-4-4-4-7-7-7-7-7-7-7-7-7-7-7-7-7-7-7-7-7-7-7-7-7-7-7-7-|
E|-------------------------------------------------5-5-5-5-5-5-------------------------------------|
 
 
PREHOD V VERZ 2 IN VERZ 2:
 
Primož & Tomi:
e|------------------X-X-X------X--X-X--X-X----|-------------|
H|------------------X-X-X------X--X-X--X-X----|-------------|
G|------------------X-X-X------X--X-X--X-X----|-------------|
D|-7-7-7-6-6-6-4--4-X-X-X-2--2-X--X-X--X-X----|-7-7-7-9-9-9-|
A|-7-7-7-6-6-6-4--4-X-X-X-2--2-X--X-X--X-X----|-7-7-7-9-9-9-|
E|-5-5-5-4-4-4-2--2-X-X-X-0--0-X--X-X--X-X--0-|-5-5-5-7-7-7-|
 
 
REFREN 2:
 
Primož & Tomi:
e|-------------------------------------------------------------------------------------------------|
H|-------------------------------------------------------------------------------------------------|
G|-------------------------------------------------------------9-9-9-9-9-9-9-9-9-9-9-9-9-9-9-9-9-9-|
D|-7-7-7-7-7-7-7-7-7-7-7-7-7-7-7-7-7-7-7-7-7-7-7-7-7-7-7-7-7-7-9-9-9-9-9-9-9-9-9-9-9-9-9-9-9-9-9-9-|
A|-5-5-5-5-5-5-4-4-4-4-4-4-4-4-4-4-4-4-4-4-4-4-4-4-7-7-7-7-7-7-7-7-7-7-7-7-7-7-7-7-7-7-7-7-7-7-7-7-|
E|-------------------------------------------------5-5-5-5-5-5-------------------------------------|
 
 
MOST:
                                                                                             Trzalica.COM
Primož:
e|----------------------------------|
H|----------------------------------|
G|-9-11-119-11-119-11-1114-14-14-14-|
D|-9-11-119-11-119-11-1114-14-14-14-|
A|-7-9--9-7-9--9-7-9--9-12-12-12-12-|
E|----------------------------------|
 
e|------------------------------|
H|------------------------------|
G|------------------------------|
D|---4--4---4--4---4--4-7-7-7-7-|
A|---4--4---4--4---4--4-7-7-7-7-|
E|-0-2--2-0-2--2-0-2--2-5-5-5-5-|
 
Tomi:
e|-9-9--9-9-9--9-9-9--9-9-9-9-9--|-----------------------------------------------------------------|
H|-9-10-109-10-109-10-109-101010-|-9-9-9-9-9-9-9-9-121212121212121210101010101010109-9-9-9-9-9-9-9-|
G|-9-11-119-11-119-11-119-111111-|-9-9-9-9-9-9-9-9-------------------------------------------------|
D|-9-11-119-11-119-11-119-111111-|-----------------9-9-9-9-9-9-9-9-7-7-7-7-7-7-7-7-6-6-6-6-6-6-6-6-|
A|-9-9--9-9-9--9-9-9--9-9-9-9-9--|-----------------------------------------------------------------|
E|-9-9--9-9-9--9-9-9--9-9-9-9-9--|-----------------------------------------------------------------|
 
 
Primož:
e|------------------------------|------------------|
H|------------------------------|------------------|
G|------------------------------|------------------|
D|-4--4---4--4---4--4---7-7-7---|-4--4---4--4---4--|
A|-4--4---4--4---4--4---7-7-7---|-4--4---4--4---4--|
E|-2--2-0-2--2-0-2--2-0-5-5-5-0-|-2--2-0-2--2-0-2--|
                                                                                             Trzalica.COM
Tomi:
e|-9---9---9-9---9---9-9---9---9-9-9-9--9-|
H|-10--10--9-10--10--9-10--10--9-101010-9-|
G|-11--11--9-11--11--9-11--11--9-111111-9-|
D|-11--11--9-11--11--9-11--11--9-111111-9-|
A|-9---9---9-9---9---9-9---9---9-9-9-9--9-|
E|-9---9---9-9---9---9-9---9---9-9-9-9--9-|
 
e|-----------------------------------------------------------------|
H|-9-9-9-9-9-9-9-9-121212121212121210101010101010109-9-9-9-9-9-9-9-|
G|-9-9-9-9-9-9-9-9-------------------------------------------------|
D|-----------------9-9-9-9-9-9-9-9-7-7-7-7-7-7-7-7-6-6-6-6-6-6-6-6-|
A|-----------------------------------------------------------------|
E|-----------------------------------------------------------------|
 
 
PEHOD IN REFREN 2:
 
Primož & Tomi:
e|-------------------------------------------------------------------------------------------------|
H|-------------------------------------------------------------------------------------------------|
G|-------------------------------------------------------------9-9-9-9-9-9-9-9-9-9-9-9-9-9-9-9-9-9-|
D|-7-7-7-7-7-7-7-7-7-7-7-7-7-7-7-7-7-7-7-7-7-7-7-7-7-7-7-7-7-7-9-9-9-9-9-9-9-9-9-9-9-9-9-9-9-9-9-9-|
A|-5-5-5-5-5-5-4-4-4-4-4-4-4-4-4-4-4-4-4-4-4-4-4-4-7-7-7-7-7-7-7-7-7-7-7-7-7-7-7-7-7-7-7-7-7-7-7-7-|
E|-------------------------------------------------5-5-5-5-5-5-------------------------------------|
 
 
ZAKLJUČEK:
                                                                                             Trzalica.COM
Primož & Tomi:
e|------------------------------|
H|------------------------------|
G|------------------------------|
D|-7----------7---------------7-|
A|-5----------7---------------7-|
E|-5----------5---------------5-|
 
 
 
 
 

trzalica bar

trzalica bar

Dodaj komentar


Varnostna koda
Osveži

  Iskanje

config