tablatura akordi besedilo   Love Love (tab)

 

 

trzalica.com besedilo akordi tablature

Legenda ikon:


Pogoji uporabe.    

besedilo z akordi besedilo z akordi
tablature tablatura (tabulatura)
tablature tablatura za bas
tablature videolekcija

GuitarPro GutarPro (GP)
note Note (v PDF formatu)
sibelius Sibelius (SIB), itd.
..

 
 ___________________________________________________________
|  _______________________________________________________  |
| |                                                       | |
| | IZVAJALEC: .............. Siddharta                   | |
| | PESEM: .................. Love love                   | |
| | ALBUM: .................. Infra                       | |
| | LETO IZIDA: ............. 2015                        | |
| | SPLETNA STRAN: .......... www.siddharta.net           | |
| |_______________________________________________________| |
| |                                                       | |
| |        Transkripcija: AliAs / september, 2015         | |
| |                                                       | |
| |            w w w . t r z a l i c a . c o m            | |
| |_______________________________________________________| |
|___________________________________________________________|
 
===========================================================================================================
 
Prijemi akordov:
 
        Am  - 5 7 7 5 5 5
        A#  - 6 8 8 7 6 6
        A#m - 6 8 8 6 6 6
        C   - X 3 5 5 5 3
        C#  - X 4 6 6 6 4
        D   - X 5 7 7 7 5
        D#m - X 5 7 7 6 5
        E   - X 7 9 9 9 7
        Fm  - X 8 10109 8
        F#  - 2 4 4 3 2 2
        F#m - 2 4 4 2 2 2
        Gm  - 3 5 5 3 3 3
        G#  - 3 5 5 4 3 3
        G#m - 4 6 6 4 4 4
        H   - X 2 4 4 4 2
        Hm  - X 2 4 4 3 2
 
===========================================================================================================
www.trzalica.com     www.trzalica.com     www.trzalica.com     www.trzalica.com     www.trzalica.com
===========================================================================================================
 
UVOD:
        D#m  C#  G#m  A#m
        D#m  C#  H
 
e|-----------------------------------------------------------------------------------|
H|-----------------------------------------------------------------------------------|
G|--------------------------------------------------------/6--6----------------------|
D|-----------/8--6--4--3----------------------/8--6--4--3--------6-6-----------------|
A|-6-666-4-6--------------4-/6------6-666-4-6----------------------------------------|
E|---------------------------------------------------------------------467--6--4--6--|
 
 
VERZ:
 
          D#m          C#
        Namesto da obljubimo
          G#m    A#m
        Namesto love love!
          D#m            C#
        Namesto da se skrivamo
           H
        Namesto love love!
     F#m              E
        Ko nori ves svet
                     Hm
        Z nami je lepo
                   C#m
        In otroci pojejo
     F#m          E
        Zanimiva pot
                     D
        Vodi nas do tja
                         E
        Kjer je sreča doma
                                                                                             Trzalica.COM
 
REFREN:
 
        A#m                G#
        Sanjamo ples in valove
        D#m              Fm
        Sanjamo veter in noč
        A#m                   G#
        Polna je zvezd in svetlobe
        F#
        Dajejo nam novo moč
        A#m              G#
        Nismo za vedno obarvani
        D#m                Fm
        Tu nismo le zaradi nas
        A#m                 G#
        Z vami bi se radi srečali
        F#
        Z vami ljubili čas
 
e|-------------------------------------------------------------------------------------------|
H|-------------------------------------------------------------------------------------------|
G|-------------------------------------------------------------------------------------------|
D|-------------------------------------------------------------------------------------------|
A|-6-8-6---------6-8-6----6-8-6---------8----6-8-6---------6-8-6----6-8-6-------/9--8--6--8--|
E|-------9--6--9----------------9--6--9------------9--6--9----------------9--6---------------|
 
e|-------------------------------------------------------------------------------------------|
H|-------------------------------------------------------------------------------------------|
G|-------------------------------------------------------------------------------------------|
D|-------------------------------------------------------------------------------------------|
A|-6-8-6---------6-8-6----6-8-6---------8----8-8-8-6----------------9-9-9-8--6--/9--8--6--8--|
E|-------9--6--9----------------9--6--9---------------9--8-8-9-8-----------------------------|
 
                                                                                             Trzalica.COM
PREHOD:
 
        Dm
        Dm  C  Gm  Am
        Dm  C  A#
 
e|-----------------------------------------------------------------------------------|
H|-----------------------------------------------------------------------------------|
G|--------------------------------------------------------/5--5----------------------|
D|-----------/7--5--3--2----------------------/7--5--3--2--------5-5-----------------|
A|-5-555-3-5--------------3-/5------5-555-3-5----------------------------------------|
E|---------------------------------------------------------------------356--5--3--5--|
 
 
VERZ:
 
           Dm          C
        Namesto da prisegamo
           Gm    Am
        Namesto love love!
           Dm           C
        Namesto da se kregamo
           A#
        Namesto love love!
     F#m              E
        Ko nori ves svet
                     Hm
        Z nami je lepo
                      C#m
        In ljudje se smejejo
     F#m          E
        Zanimiva pot
                     D
        Vodi nas do tja
                         E
        Kjer je sreča doma
                                                                                             Trzalica.COM
 
REFREN:
 
        A#m                G#
        Sanjamo ples in valove
        D#m              Fm
        Sanjamo veter in noč
        A#m                   G#
        Polna je zvezd in svetlobe
        F#
        Dajejo nam novo moč
        A#m              G#
        Nismo za vedno obarvani
        D#m                Fm
        Tu nismo le zaradi nas
        A#m                 G#
        Z vami bi se radi srečali
        F#
        Z vami ljubili čas
 
        A#m  G#  D#m  Fm
        A#m  G#  F#
                                                                                             Trzalica.COM
        A#m
        Love love!!
 
e|-------------------------------------------------------------------------------------------|
H|-------------------------------------------------------------------------------------------|
G|-------------------------------------------------------------------------------------------|
D|-------------------------------------------------------------------------------------------|
A|-6-8-6---------6-8-6----6-8-6---------8----6-8-6---------6-8-6----6-8-6-------/9--8--6--8--|
E|-------9--6--9----------------9--6--9------------9--6--9----------------9--6---------------|
 
e|-------------------------------------------------------------------------------------------|
H|-------------------------------------------------------------------------------------------|
G|-------------------------------------------------------------------------------------------|
D|-------------------------------------------------------------------------------------------|
A|-6-8-6---------6-8-6----6-8-6---------8----8-8-8-6----------------9-9-9-8--6--/9--8--6--8--|
E|-------9--6--9----------------9--6--9---------------9--8-8-9-8-----------------------------|
 
e|----------------------------------|----------------------|
H|----------------------------------|----------------------|
G|----------------------------------|----------------------|
D|----------------------------------|----------------------|
A|----------8--6--4--3--------------|-/9--8--6--8----------|
E|-6--4--6--------------4--6--------|--------------6--6----|
 

trzalica bar

trzalica bar

Dodaj komentar


Varnostna koda
Osveži

  Iskanje

config