tablatura akordi besedilo   Piknik (tab)

trzalica.com besedilo akordi tablature

Legenda ikon:


Pogoji uporabe.    

besedilo z akordi besedilo z akordi
tablature tablatura (tabulatura)
tablature tablatura za bas
tablature videolekcija

GuitarPro GutarPro (GP)
note Note (v PDF formatu)
sibelius Sibelius (SIB), itd.
..

 ___________________________________________________________
|  _______________________________________________________  |
| |                                                       | |
| | IZVAJALEC: .............. Siddharta                   | |
| | PESEM: .................. Piknik                      | |
| | ALBUM: .................. Infra                       | |
| | LETO IZIDA: ............. 2015                        | |
| | SPLETNA STRAN: .......... www.siddharta.net           | |
| |_______________________________________________________| |
| |                                                       | |
| |        Transkripcija: AliAs / september, 2015         | |
| |                                                       | |
| |            w w w . t r z a l i c a . c o m            | |
| |_______________________________________________________| |
|___________________________________________________________|
 
===========================================================================================================
 
Prijemi akordov:
 
        A   - X 0 2 2 2 0
        Am  - 5 7 7 5 5 5
        A*  - X 4 2 2 2 X
        C   - X 3 2 0 1 0
        C#m - X 4 6 6 5 4
        C#* - X 4 4 4 4 4
        D   - X X 0 3 2 3
        D#5 - X 6 8 8 X X
        E   - 0 2 2 1 0 0
        F#  - 2 4 4 3 2 2
        F#m - 2 4 4 2 2 2
        G#m - 4 6 6 4 4 4
        G#* - 4 4 4 4 4 4
        H   - X 2 4 4 4 X
 
===========================================================================================================
www.trzalica.com     www.trzalica.com     www.trzalica.com     www.trzalica.com     www.trzalica.com
===========================================================================================================
 
Uvod:
 
e|--------------------------------------------------------------------------------------------------|
H|--------------------------------------------------------------------------------------------------|
G|--------------------------------------------------------------------------------------------------|
D|------------9------------------------9-----------------------9------------------------9-----------|
A|----9-9-/11---11-9-\7-/9-----9-9-/11---11-9-\7-------9-9-/11---11-9-\7-/9-----9-9-/11-----11-\9---|
E|-0------------------------0-----------------------0------------------------0----------------------|
 
 
Kitica:
 
e|----------------------------------------------------------------------------------------------------|
H|----------------------------------------------------------------------------------------------------|
G|----------------------------------------------------------------------------------------------------|
D|------------9------------------------9-----------------------9------------------------9--9--11p9----|
A|----9-9-/11---11-9-\7-/9-----9-9-/11---11-9-\7-------9-9-/11---11-9-\7-/9-----9-9-/11------------11-|
E|-0------------------------0-----------------------0------------------------0------------------------|
 
e|------------------------------------------------------------------------------------------------|
H|-----------------------------------------10-----------------------------------------------------|
G|------------9------------------------9---9------------------------------------------------------|
D|----9-9-/11-----11-\9-\7-----9-9-/11----------------------9------------------------9--9--11p9---|
A|-0------------------------0----------------------9-9-/11---11-9-\7-/9-----9-9-/11------------11-|
E|----------------------------------------------0------------------------0------------------------|
 
     E
        Vroče poletje, voda hladi,
                                   A
        senca zavetje in eden tistih dni,
                          E
        uuuu čisto brez skrbi, tjarari.
                                                                                             Trzalica.COM
                A               H
        Ko življenje zakrije zobe,
                A*                  H
        pridejo iskre in dobri ljudje.
 
e|---------------------------------------------------------------------------------------------------|
H|---------------------------------------------------------------------------------------------------|
G|---------------------------------------------------------------------------------------------------|
D|------------9------------------------9-----------------------9-----------------------9--9--11p9----|
A|----9-9-/11---11-9-\7-/9-----9-9-/11---11-9-\7-------9-9-/11----11-\9-\7-----9-9-/11------------11-|
E|-0------------------------0-----------------------0-----------------------0------------------------|
 
e|------------------------------------------------------------------------------------|
H|------------------------------------------------------------------------------------|
G|------------9------------------------9--9-11^--11^--11ˇ-p9-----9--------------------|
D|----9-9-/11-----11-\9-\7-----9-9-/11-----------------------11----11---9---11---9----|
A|-0------------------------0---------------------------------------------------------|
E|------------------------------------------------------------------------------------|
 
     E
        Vroče poletje, prijetno diši
                                                 A
        glasba in petje, nekaj na eks in razodetje,
                          E
        uuuu tako nam je lepo... je lepo.
 
                   A               H
        In ko življenje zakrije zobe,
                A*                  H
        pridejo iskre in dobri ljudje, oh, oh!
 
                                                                                             Trzalica.COM
Refren:
 
     E                       C#m C#* C#m           G#m G#* G#m
        Nekaj sije v nas ljudeh,     ne ugibajmo zakaj,
               F#m    H
        le da vsem lepo je.
     E                 C#m C#* C#m            G#m G#* G#m
        Tudi goli smo vmes,    a nikogar ne izdaj,
                  A     H
        zdaj gre le na bolje.
     E                   C#m C#* C#m           G#m G#* G#m
        Nekaj sije iz teles,     ne ugibajmo zakaj,
               F#m    H
        le da vsem lepo je.
     E                 C#m C#* C#m            G#m G#* G#m
        Tudi goli smo vmes,    a nikogar ne izdaj,
                  A     Am
        zdaj gre le na bolje.
 
 
Solo:
 
e|--------------12---------------------------------12----14---12-----|
H|----------12---------------------------------12-------------12-----|
G|---11/13------------13--13--11--\9----11/13------------------------|
D|-------------------------------------------------------------------|
A|-------------------------------------------------------------------|
E|-------------------------------------------------------------------|
 
                                                                                             Trzalica.COM
Kitica:
 
        Sonce zahaja, zvezde budi,
        zrak se ohlaja, ogenj gori, plešemo v temi,
        uuuu počasi brez skrbi, tjarari.
 
        In ko življenje zakrije zobe,
        pridejo iskre in dobri ljudje, oh, oh!
 
 
Refren:
 
        Nekaj sije v nas ljudeh, ne ugibajmo zakaj,
        le da vsem lepo je.
        Tudi goli smo vmes, a nikogar ne izdaj,
        zdaj gre le na bolje.
        Nekaj sije iz teles, ne ugibajmo zakaj,
        le da vsem lepo je.
        Tudi goli smo vmes, a nikogar ne izdaj,
        zdaj gre le na bolje.
 
 
Most:
 
   H                          F#                      G#m
e|------------------------------------------------------------------------------|
H|-------------7-----------------------7----------------------------------------|
G|--------6-8-----8--6-----6--------6-----6--------------------8----------------|
D|-7/9--9---------------9-------8-9----------9--8--9----6-8-9-----9--8--6--8----|
A|------------------------------------------------------------------------------|
E|------------------------------------------------------------------------------|
 
   F#                       E                        D#5
e|------------------------------------------------------------------------|
H|------------------------------------9-----------------------7-----------|
G|--------6-------------6-8-9--6-8-9-----9--8--6--8------6-8-----8--6--8--|
D|---6-8-----8----6-8-9--------------------------------9------------------|
A|-9------------9---------------------------------------------------------|
E|------------------------------------------------------------------------|
                                                                                             Trzalica.COM
   C#m                    F#                        E
e|-------------------------------------------------------|
H|---------9-----------------------7---------------------|
G|--6-8-9-----9--8--6--8--------6-----6------------------|
D|--------------------------8-9----------9--8--9\8--6----|
A|-------------------------------------------------------|
E|-------------------------------------------------------|
 
 
Refren:
 
     E
        Nekaj sije v nas ljudeh,     ne ugibajmo zakaj,
                C     D
        le da vsem lepo je.
     E                 C#m C#* C#m            G#m G#* G#m
        Tudi goli smo vmes,    a nikogar ne izdaj,
                  A     H
        zdaj gre le na bolje.
     E                   C#m C#* C#m           G#m G#* G#m
        Nekaj sije iz teles,     ne ugibajmo zakaj,
               F#m    H
        le da vsem lepo je.
     E                 C#m C#* C#m            G#m G#* G#m
        Tudi goli smo vmes,    a nikogar ne izdaj,
                  A     Am
        zdaj gre le na bolje.
 
 
 

trzalica bar

trzalica bar

Dodaj komentar


Varnostna koda
Osveži

  Iskanje

config