tablatura akordi besedilo   Nastalo bo (tab)

trzalica.com besedilo akordi tablature

Legenda ikon:


Pogoji uporabe.    

besedilo z akordi besedilo z akordi
tablature tablatura (tabulatura)
tablature tablatura za bas
tablature videolekcija

GuitarPro GutarPro (GP)
note Note (v PDF formatu)
sibelius Sibelius (SIB), itd.
..


 ___________________________________________________________
|  _______________________________________________________  |
| |                                                       | |
| | IZVAJALEC: .............. Siddharta                   | |
| | PESEM: .................. Nastalo bo                  | |
| | ALBUM: .................. Ultra                       | |
| | LETO IZIDA: ............. 2015                        | |
| | SPLETNA STRAN: .......... www.siddharta.net           | |
| |_______________________________________________________| |
| |                                                       | |
| |         Transkripcija: AliAs / november, 2015         | |
| |                                                       | |
| |            w w w . t r z a l i c a . c o m            | |
| |_______________________________________________________| |
|___________________________________________________________|

===========================================================================================================

           Prijemi akordov
        D   - 5  5  7  7  7  X
        E   - 0  2  2  1  X  X
        F#m - 2  4  4  X  X  X
        F#2 - X  9  X  11 X  X
        Hm  - 2  2  4  4  3  X

===========================================================================================================
www.trzalica.com      www.trzalica.com      www.trzalica.com      www.trzalica.com      www.trzalica.com
===========================================================================================================


Uvod:

        F#m   E   Hm
        F#m   E   Hm   F#2


Kitica:

   F#m                                  E     F#m                                         E
e|----------------------------------------------------------------------------------------------|
H|----------------------------------------------------------------------------------------------|
G|----------------------------------------------------------------------------------------------|
D|--------------------------------------6-------------------------------------------------6-----|
A|--------------------------------------7---------------------2--4-0----------------------7-----|
E|-2-2-0-2-2-0-2-------2-2-0-2-2-0-2----0-----2-2-0-2-2-0-2----------4---2-2-0-2-2-0-2----0-----|

                    e|-----------5-4-----|                            e|-----------5-4-----|
                    H|---7---7-----------|                            H|---7---7-----------|
                    G|-6---6---6---------|   < V drugi ponovitvi >    G|-6---6---6---------|
                    D|-------------------|                            D|-------------------|
                    A|-------------------|                            A|-------------------|
                    E|-------------------|                            E|-------------------|

                                                                                             Trzalica.COM
        F#m                                  E
        Na ta večer od daleč opazujem ljudi
        Lahko te vidim tudi kadar ni več luči
        Ledeno mrzle roke hladijo srce
        Le to bo pregorelo od tvojih besed

        D                          Hm
        Tukaj ti si sama, jaz sem tam
                      F#m     E
        Ponudiva si telo
        D                      Hm
        Dajva dajva dol svoje maske
                     F#m     E
        Ljubiva se tako
        D                          Hm
        Tukaj ti si sama, jaz sem tam
                      F#m     E
        Ponudiva si telo
        D                      Hm
        Dajva dajva dol svoje maske
                      E
        Ljubiva se tako

                                                                                             Trzalica.COM
Refren:

     E              D             F#m
        Ostala boš ti, ostal bom jaz
                    D        Hm     F#m
        Nastalo bo tisoč najlepših pesmi
                    D             F#m             E
        Ostala boš ti, ostal bom jaz in najlepši čas
                    D             F#m
        Ostala boš ti, ostal bom jaz
                    Hm           D     F#m
        Nastalo bo vse kar sem kdaj želel si
                    D             F#m             E
        Ostala boš ti, ostal bom jaz in najlepši čas


Solo:

   E                 D               Hm              F#m  E              D               Hm          F#m
e|-----------------|--------------------------------------------------------------------------------------|
H|-----------------|--------------------------------------------------------------------------------------|
G|-9-9-9-9-9-9-9-9-|-7-7-7-7-7-7-7-7-4-4-4-2-4/6---4/6--------1-2-1-----/7-7-7-7-7-7-7-7-4-4-4-2-4/6------|
D|-----------------|--------------------------------------2-4-------4-2------------------------------2-2\-|
A|-----------------|--------------------------------------------------------------------------------------|
E|-----------------|-------------------------------------(0-2-4-5-4-2-0)----------------------------------|

                                                                                             Trzalica.COM
Kitica:

   F#m
e|------------------------------------------------|
H|------------------------------------------------|
G|------------------------------------------------|
D|------------------------------------------------|
A|-------------------------------------2--4-0-----|
E|-2-2-0-2-2-0-2-------2-2-0-2-2-0-2----------4---|

   F#m                                  E     F#m                                         E
e|----------------------------------------------------------------------------------------------|
H|----------------------------------------------------------------------------------------------|
G|----------------------------------------------------------------------------------------------|
D|--------------------------------------6-------------------------------------------------6-----|
A|--------------------------------------7---------------------2--4-0----------------------7-----|
E|-2-2-0-2-2-0-2-------2-2-0-2-2-0-2----0-----2-2-0-2-2-0-2----------4---2-2-0-2-2-0-2----0-----|

                    e|-----------5-4-----|                            e|------------4-----------|
                    H|---7---7-----------|                            H|---7---7------7---7-----|
                    G|-6---6---6---------|                            G|-6---6---6------6-------|
                    D|-------------------|                            D|------------------------|
                    A|-------------------|                            A|------------------------|
                    E|-------------------|                            E|------------------------|
                                                                                             Trzalica.COM
   F#m                                  E     F#m                                          E
e|-----------------------------------------------------------------------------------------------|
H|-----------------------------------------------------------------------------------------------|
G|-----------------------------------------------------------------------------------------------|
D|--------------------------------------6--------------------------------------------------6-----|
A|--------------------------------------7---------------------2--4-0-----------------------7-----|
E|-2-2-0-2-2-0-2-------2-2-0-2-2-0-2----0-----2-2-0-2-2-0-2----------4---2-2-0-2-2-0-2-----0-----|

                    e|-----------5-4-----|                            e|-5-5-5-5-5-5-5-4-4-4-----|
                    H|---7---7-----------|                            H|-7-7-7-7-7-7-7-5-5-5-----|
                    G|-6---6---6---------|                            G|-------------------------|
                    D|-------------------|                            D|-------------------------|
                    A|-------------------|                            A|-------------------------|
                    E|-------------------|                            E|-------------------------|

        F#m                                  E
        Samo da ne ukrotiva, kar imava v očeh
        Le malo manj sumljiva zavrtiva ta svet
        Potem v noč izgineva kakor vihar
        In za seboj pustiva kar nama ni mar

                                                                                             Trzalica.COM
Refren:

     E              D             F#m
        Ostala boš ti, ostal bom jaz
                    D        Hm     F#m
        Nastalo bo tisoč najlepših pesmi
                    D             F#m             E
        Ostala boš ti, ostal bom jaz in najlepši čas
                    D             F#m
        Ostala boš ti, ostal bom jaz
                    Hm           D     F#m
        Nastalo bo vse kar sem kdaj želel si
                    D             F#m             E
        Ostala boš ti, ostal bom jaz in najlepši čas


Solo:
                                                                                             Trzalica.COM
   D               Hm              F#m    E     D               Hm              F#m   E
e|----------------------------------------------------------------------------------------------------|
H|----------------------------------------------------------------------------------------------------|
G|-7-7-7-7-7-7-7-7-4-4-4-4-4/6-6-4-6----6/9-----7-7-7-7-7-7-7-7-4-4-4-4-4/6-------------------------6-|
D|--------------------------------------------------------------------------7-6-7-----6-----6-7---9---|
A|--------------------------------------------------------------------------------------7-9-----------|
E|----------------------------------------------------------------------------------------------------|

   D               Hm              F#m    E     D               Hm              F#m
e|------------------------------------------------------------------------------------|
H|------------------------------------------------------------------------------------|
G|-7-7-7-7-7-7-7-7-4-4-4-2-4/6-6-4-6----6/9-----7-7-7-7-7-7-7-7-4-4-4-2-4/6-----------|
D|--------------------------------------------------------------------------7-6-4\----|
A|------------------------------------------------------------------------------------|
E|------------------------------------------------------------------------------------|
                                                                                             Trzalica.COM
        D                          Hm
        Tukaj ti si sama, jaz sem tam
                      F#m     E
        Ponudiva si telo
        D                      Hm
        Dajva dajva dol svoje maske
                     F#m     E
        Ljubiva se tako
        D                          Hm
        Tukaj ti si sama, jaz sem tam
                      F#m     E
        Ponudiva si telo
        D                      Hm
        Dajva dajva dol svoje maske
                      F#m
        Ljubiva se tako

                                                                                             Trzalica.COM
Refren:

     F#m            D             F#m
        Ostala boš ti, ostal bom jaz
                    D        Hm     F#m
        Nastalo bo tisoč najlepših pesmi
                    D             F#m             E
        Ostala boš ti, ostal bom jaz in najlepši čas
                    D             F#m
        Ostala boš ti, ostal bom jaz
                    Hm           D     F#m
        Nastalo bo vse kar sem kdaj želel si
                    D             F#m             E
        Ostala boš ti, ostal bom jaz in najlepši čas

     E              D             F#m
        Ostala boš ti, ostal bom jaz
                    Hm           D     F#m
        Nastalo bo vse kar sem kdaj želel si
                    D             F#m             E
        Ostala boš ti, ostal bom jaz in najlepši čas
                                                                                             Trzalica.COM
Solo:

   D               Hm              F#m    E     D               Hm              F#m   E
e|---------------------------------------------------------------------------------------------------|
H|---------------------------------------------------------------------------------------------------|
G|-7-7-7-7-7-7-7-7-4-4-4-4-4/6-6-4-6----6/9-----7-7-7-7-7-7-7-7-4-4-4-4-4/6-------------------------6|
D|--------------------------------------------------------------------------7-6-7-----6-----6-7---9--|
A|--------------------------------------------------------------------------------------7-9----------|
E|---------------------------------------------------------------------------------------------------|

   D               Hm              F#m    E     D               Hm          F#m
e|------------------------------------------------------------------------------------------------|
H|--------------------------------------------------------------------------5--7~~~~~~~~~~~~~~~~--|
G|-7-7-7-7-7-7-7-7-4-4-4-2-4/6-6-4-6----6/9-----7-7-7-7-7-7-7-7-4-4-4-2-4/6-----------------------|
D|------------------------------------------------------------------------------------------------|
A|------------------------------------------------------------------------------------------------|
E|-------------------------------------------------------------------------(14-14\-2-2-0-2-2-0-2)-|


 

trzalica bar

trzalica bar

Dodaj komentar


Varnostna koda
Osveži

  Iskanje

config