tablatura akordi besedilo   Do konca (tab)

trzalica.com besedilo akordi tablature

Legenda ikon:


Pogoji uporabe.    

besedilo z akordi besedilo z akordi
tablature tablatura (tabulatura)
tablature tablatura za bas
tablature videolekcija

GuitarPro GutarPro (GP)
note Note (v PDF formatu)
sibelius Sibelius (SIB), itd.
..

 ___________________________________________________________
|  _______________________________________________________  |
| |                                                       | |
| | IZVAJALEC: .............. Siddharta                   | |
| | PESEM: .................. Do konca                    | |
| | ALBUM: .................. Infra                       | |
| | LETO IZIDA: ............. 2015                        | |
| | SPLETNA STRAN: .......... www.siddharta.net           | |
| |_______________________________________________________| |
| |                                                       | |
| |           Transkripcija: AliAs / maj, 2017            | |
| |                                                       | |
| |            w w w . t r z a l i c a . c o m            | |
| |_______________________________________________________| |
|___________________________________________________________|
 
==========================================================================================================
 
Znaki v tablaturi:
        /  - zdrs navzgor
        \  - zdrs navzdol
        *  - dušenje z dlanjo
        X  - pridušeni ton
        br - bend za cel ton in release
 
Prijemi akordov:
 
        A7M        - X 0 2 1 2 0
        A7sus2     - X 0 2 0 0 3
        Aadd11     - X 0 0 2 2 0
        Asus2      - X 0 2 2 0 0
        Asus2add13 - X 0 4 2 0 0
        Asus4add9  - X 0 0 2 0 0
        D          - X X 0 2 3 2
        Dm         - X X 0 2 3 1
        Dsus4      - X X 0 2 3 3
        E/A        - X 0 2 1 0 0
        Em         - 0 2 2 0 0 0
        G          - 3 2 0 0 0 3
        G7M        - 3 2 0 0 0 2
 
==========================================================================================================
       Trzalica.com        Trzalica.com        Trzalica.com        Trzalica.com        Trzalica.com
==========================================================================================================
 
Uvod:
 
   G
e|------------------------------------------|
H|------------------------------------------|
G|-5/7-7-7-7/9-9-9-9/11-11-11-11/14--14--14-|
D|------------------------------------------|
A|-3/5-5-5-5/7-7-7-7/9--9--9--9-/12--12--12-|
E|------------------------------------------|
 
   Asus2     A7M       Em        G   G7M   Asus2     A7M       Em
e|-----0---------0---------0-----3---2---------0---------0---------0------|
H|-----0---------2---------0-----0---0---------0---------2---------0------|
G|-2---2-----1---1---------0-----0---0-----2---2-----1---1---------0------|
D|-2---------2---------2---------0---------2---------2---------2----------|
A|-0---------0---------2---------2---------0---------0---------2----------|
E|---------------------0---------3-----------------------------0----------|
 
   G                                        Asus2
e|------------------------------------------0----------------------|
H|------------------------------------------0----------------------|
G|-5/7-7-7-7/9-9-9-9/11-11-11-11/14--14--14-2----------------------|
D|------------------------------------------2----------------------|
A|-3/5-5-5-5/7-7-7-7/9--9--9--9-/12--12--12-0----------------------|
E|-----------------------------------------------------------------|
                                                                                            Trzalica.COM
 
Verz:
 
               Asus2     E/A
      Nekje na dnu je oblast,
               Asus2add13  Asus2
      a midva nisva njena last,
               Asus4add9 Aadd11        A7sus2
      kot da bi, kot da bi brez naju vrela.
 
            Asus2          E/A
      Dolga pot, polna anekdot,
            Asus2add13  Asus2
      pizdarije  vsepovsod,
            Asus4add9 Aadd11    A7sus2
      a nato,    a nato je izparela.
 
                  D
      Ukradla je čas,
                Dm
      vzela najboljši zrak.
 
   A7sus2    A7sus2    D     Dm                Asus2
e|-3-------|-3-------|--------------------------------|
H|-0-------|-0-------|--------------------------------|
G|-0-------|-0-------|-11----10----14--12--10--9------|
D|-2-------|-2-------|-0-----0------------------------|
A|-0-------|-0-------|------------------------(0)-----|
E|---------|---------|--------------------------------|
                                                                                            Trzalica.COM
 
   Asus2    E/A       Asus2add13
      Naj ubijava kot vsi,
          Asus2      Asus4add9
      naokoli brez vesti
           Aadd11    A7sus2
      in tako oba umreva?
 
             Asus2          E/A
      Kje je bistvo, kaj je bog,
            Asus2add13  Asus2
      prerojeno bo prišlo,
            Asus4add9  Aadd11     A7sus2
      oni dan,  ko noben naju ne ovira.
 
                     D                Dm        Dsus4  Dm       Dsus4 
      Prišel bo nov čas, prinesel bo boljši zrak,     boljši zrak...
      (Boljši zrak)
 
   A7sus2    Asus2       E/A    Asus2add13  Asus2  Asus4add9   Aadd11  A7sus2
e|-3-------|-----5-------4----------2-------0--------------------------3--------|
H|-0-------|-------------------------------------------3-------2-------0--------|
G|-0-------|-6-------6----------4-------4----------2-------2-----------0--------|
D|-2-------|-----------------------------------------------------------2--------|
A|-0-------|-----------------------------------------------------------0--------|
E|---------|--------------------------------------------------------------------|
                                                                                            Trzalica.COM
   D                 Dm       Dsus4    Dm       Dsus4
e|------------------------------------------------------|
H|------------------------------------------------------|
G|-11-11-11-13-13-13-14-14-14-16-16-16-18-18-18-19--19--|
D|-0--0--0--0--0--0--0--0--0--0--0--0--0--0--0--0---0---|
A|------------------------------------------------------|
E|------------------------------------------------------|
 
 
Refren:
 
         Asus2   A7M
      Od tuuuuuuuuu,
                Em        G  G7M
      greva do sonca, do konca.
         Asus2   A7M
      In taaaaaaaam,
                 Em         G
      zdaj lahko dihava naprej
          Asus2       A7M
      Le kaaaj nama fali,
                  Em          G  G7M G
      to noč sva srečna, sva večna.
         Asus2        A7M
      Nazaaaj naju ne bo, o,
              Em            G
      naju ne bo, greva od tod.
                                                                                            Trzalica.COM
   Asus2     A7M       Em        G   G7M   Asus2     A7M       Em
e|-----0---------0---------0-----3---2---------0---------0---------0------|
H|-----0---------2---------0-----0---0---------0---------2---------0------|
G|-2---2-----1---1---------0-----0---0-----2---2-----1---1---------0------|
D|-2---------2---------2---------0---------2---------2---------2----------|
A|-0---------0---------2---------2---------0---------0---------2----------|
E|---------------------0---------3-----------------------------0----------|
 
   G
e|------------------------------------------|
H|------------------------------------------|
G|-5/7-7-7-7/9-9-9-9/11-11-11-11/14--14--14-|
D|------------------------------------------|
A|-3/5-5-5-5/7-7-7-7/9--9--9--9-/12--12--12-|
E|------------------------------------------|
 
   Asus2     A7M       Em        G   G7M G   Asus2     A7M       Em
e|-----0---------0---------0---------------------0---------0---------0------|
H|-----0---------2---------0---------------------0---------2---------0------|
G|-2---2-----1---1---------0-----------------2---2-----1---1---------0------|
D|-2---------2---------2---------------------2---------2---------2----------|
A|-0---------0---------2---------------------0---------0---------2----------|
E|---------------------0---------3---2---3-----------------------0----------|
 
   G                                                 Asus2
e|---------------------------------------------------0----|
H|---------------------------------------------------0----|
G|-5/7-7-7-7/9-9-9-9/11-11-11-11/14------------------2----|
D|---------------------------------------------------2----|
A|-3/5-5-5-5/7-7-7-7/9--9--9--9-/12--8-7--5--8-7--5--0----|
E|--------------------------------------------------------|
                                     ××××××××××××××××
                                                                                            Trzalica.COM
Verz:
 
      Asus2          E/A
      Asus2add13     Asus2
      Asus4add9      Aadd11     A7sus2
 
          Asus2   E/A
      Prihaja nov čas
   Asus2add13     Asus2
      in boljši zrak,
      Asus4add9    Aadd11    A7sus2
      vse bolj lahkoten je korak,
 
          Asus2   E/A
      svobodno odslej
      Asus2add13  Asus2
      bije      srce,
      Asus4add9    Aadd11   A7sus2
      bije   v    ritmu  naprej.
 
                 D             Dm        Dsus4  Dm        Dsus4 
      Vzela sva čas, vzela najboljši zrak,   najboljši zrak...
 
   A7sus2    Asus2       E/A    Asus2add13  Asus2  Asus4add9   Aadd11  A7sus2
e|-3-------|-----5-------4----------2-------0--------------------------3--------|
H|-0-------|-------------------------------------------3-------2-------0--------|
G|-0-------|-----------------------------------------------------------0--------|
D|-2-------|-----------------------------------------------------------2--------|
A|-0-------|-0-------0-----------0-------0---------0-------0-----------0--------|
E|---------|--------------------------------------------------------------------|
                                                                                            Trzalica.COM
   Asus2       E/A    Asus2add13  Asus2  Asus4add9   Aadd11  A7sus2
e|-----5-------4----------2-------0--------------------------3--------|
H|-------------------------------------------3-------2-------0--------|
G|-----------------------------------------------------------0--------|
D|-----------------------------------------------------------2--------|
A|-0-------0-----------0-------0---------0-------0-----------0--------|
E|--------------------------------------------------------------------|
 
   D                 Dm       Dsus4    Dm       Dsus4
e|------------------------------------------------------|
H|------------------------------------------------------|
G|-11-11-11-13-13-13-14-14-14-16-16-16-18-18-18-19--19--|
D|-0--0--0--0--0--0--0--0--0--0--0--0--0--0--0--0---0---|
A|------------------------------------------------------|
E|------------------------------------------------------|
 
 
Solo:
 
   A5                     E5                     A5                     E5
e|--------------------------------8---br--10-br---------------------------------8---12-10-8-10-12-10-8-|
H|---------8---br--10-br---------------------------------8---br--10-br---------------------------------|
G|-----------------------------------------------------------------------------------------------------|
D|-7---7------------------2---2------------------7---7------------------2---2--------------------------|
A|-7---7------------------2---2------------------7---7------------------2---2--------------------------|
E|-5---5------------------0---0------------------5---5------------------0---0--------------------------|
 
   A5                     E5                     F5            G5
e|--------------------------------8---br--10-br--8---10---12---13-\----|
H|---------8---br--10-br------------------------(---------12---13-\-)--|  > Tone v oklepajih igra
G|----------------------------------------------(9---12-------------)--|  > druga kitara!
D|-7---7------------------2---2----------------------------------------|
A|-7---7------------------2---2----------------------------------------|
E|-5---5------------------0---0----------------------------------------|
 
                                                                                            Trzalica.COM
Refren:
 
         Asus2   A7M
      Od tuuuuuuuuu,
                Em        G  G7M
      greva do sonca, do konca.
         Asus2        A7M
      In taaam, tam bova.
                 Em         G
      Zdaj lahko dihava naprej
          Asus2       A7M
      Le kaaaj nama fali,
                  Em          G  G7M G
      kadar sva srečna, sva večna.
         Asus2        A7M
      Nazaaaj naju ne bo, o,
              Em            G
      naju ne bo, greva od tod.
 
   Asus2     A7M       Em        G   G7M   Asus2     A7M       Em
e|-----0---------0---------0-----3---2---------0---------0---------0------|
H|-----0---------2---------0-----0---0---------0---------2---------0------|
G|-2---2-----1---1---------0-----0---0-----2---2-----1---1---------0------|
D|-2---------2---------2---------0---------2---------2---------2----------|
A|-0---------0---------2---------2---------0---------0---------2----------|
E|---------------------0---------3-----------------------------0----------|
                                                                                            Trzalica.COM
   G
e|------------------------------------------|
H|------------------------------------------|
G|-5/7-7-7-7/9-9-9-9/11-11-11-11/14--14--14-|
D|------------------------------------------|
A|-3/5-5-5-5/7-7-7-7/9--9--9--9-/12--12--12-|
E|------------------------------------------|
 
   Asus2     A7M       Em        G   G7M G   Asus2     A7M       Em
e|-----0---------0---------0---------------------0---------0---------0------|
H|-----0---------2---------0---------------------0---------2---------0------|
G|-2---2-----1---1---------0-----------------2---2-----1---1---------0------|
D|-2---------2---------2---------------------2---------2---------2----------|
A|-0---------0---------2---------------------0---------0---------2----------|
E|---------------------0---------3---2---3-----------------------0----------|
 
   G                                                    Asus2
e|---------------------------------------------------X--0----|
H|---------------------------------------------------X--0----|
G|-5/7-7-7-7/9-9-9-9/11-11-11-11/14------------------X--2----|
D|---------------------------------------------------X--2----|
A|-3/5-5-5-5/7-7-7-7/9--9--9--9-/12--8-7--5--8-7--5--X--0----|
E|---------------------------------------------------X-------|
                                     ××××××××××××××××
 

trzalica posnetek bar

trzalica bar
 

Dodaj komentar


Varnostna koda
Osveži

  Iskanje

config