tablatura akordi besedilo   090 (tab)

trzalica.com besedilo akordi tablature

Legenda ikon:


Pogoji uporabe.    

besedilo z akordi besedilo z akordi
tablature tablatura (tabulatura)
tablature tablatura za bas
tablature videolekcija

GuitarPro GutarPro (GP)
note Note (v PDF formatu)
sibelius Sibelius (SIB), itd.
..

Vse verzije te pesmi:      090 (tab)       090 (gp)

trzalica bar

   ___________________________________________________________
  |  _______________________________________________________  |
  | |                                                       | |
  | | IZVAJALEC: .............. Zablujena Generacija        | |
  | | PESEM: .................. 090                         | |
  | | ALBUM: .................. Mi smo stare pizde          | |
  | | LETO IZIDA: ............. 2008                        | |
  | | DOMAČA STRAN: ........... www.zablujena.com           | |
  | |_______________________________________________________| |
  | |                                                       | |
  | |   Avtor transkripcije: AliAs                          | |
  | |   Domača stran transkripcije: www.trzalica.com        | |
  | |   Datum nastanka transkripcije: 21.3.2008             | |
  | |_______________________________________________________| |
  |___________________________________________________________|

================================================================================================
www.trzalica.com    www.trzalica.com    www.trzalica.com    www.trzalica.com    www.trzalica.com
================================================================================================

INTRO:
   D               G               D               A               D               G                 A
e|-------------------------------------------------------------------------------------------------------------------------------|
B|-------------------------------------------------------------------------------------------------------------------------------|
G|-----7-7-----7-7---------------------7-7-----7-7---------------------7-7-----7-7-----------------------------------------------|
D|-7-7-7-7-7-7-7-7-----5-5-----5-5-7-7-7-7-7-7-7-7-----7-7-----7-7-7-7-7-7-7-7-7-7-----5-5-----5-5-----7-7-----7-7-7-------------|
A|-5-5-5-5-5-5-5-5-5-5-5-5-5-5-5-5-5-5-5-5-5-5-5-5-7-7-7-7-7-7-7-7-5-5-5-5-5-5-5-5-5-5-5-5-5-5-5-5-7-7-7-7-7-7-7-7-7--5--5--5----|
E|-----------------3-3-3-3-3-3-3-3-----------------5-5-5-5-5-5-5-5-----------------3-3-3-3-3-3-3-3-5-5-5-5-5-5-5-5-5-------------|
   ×××     ×××     ×××     ×××     ×××     ×××     ×××     ×××     ×××     ×××     ×××     ×××     ×××     ×××

druga kitara:
       A
e|---------------|
B|-----7---------|
G|--------7------|
D|-----------7---|
A|---------------|
E|---------------|
       ¤  ¤  ¤


D                  G
Tako je lepa in lepo vzgojena
   D         A
nikoli ni sebična
D            G
dobro ve kaj ona hoče
    D          A    D
ji nič ni nemogoče

                                2x                                     4x
   D               G               D               A                 D
e|-----------------------------------------------------------------|---------|
B|-----------------------------------------------------------------|---------|
G|-----7-7-----7-7---------------------7-7-----7-7-----------------|-7-7-7-7-|
D|-7-7-7-7-7-7-7-7-----5-5-----5-5-7-7-7-7-7-7-7-7-----7-7-----7-7-|-7-7-7-7-|
A|-5-5-5-5-5-5-5-5-5-5-5-5-5-5-5-5-5-5-5-5-5-5-5-5-7-7-7-7-7-7-7-7-|-5-5-5-5-|
E|-----------------3-3-3-3-3-3-3-3-----------------5-5-5-5-5-5-5-5-|---------|
   ×××     ×××     ×××     ×××     ×××     ×××     ×××     ×××

Rada liže in sploh ne grize
zmeraj se odzove na pozive
kadar jo slišm je nasmejana
do konca je stvari predana

   D               G               D               A
e|-----------------------------------------------------------------|
B|-----------------------------------------------------------------|
G|-----7-7-----7-7---------------------7-7-----7-7-----------------|  2x
D|-7-7-7-7-7-7-7-7-----5-5-----5-5-7-7-7-7-7-7-7-7-----7-7-----7-7-|
A|-5-5-5-5-5-5-5-5-5-5-5-5-5-5-5-5-5-5-5-5-5-5-5-5-7-7-7-7-7-7-7-7-|
E|-----------------3-3-3-3-3-3-3-3-----------------5-5-5-5-5-5-5-5-|
   ×××     ×××     ×××     ×××     ×××     ×××     ×××     ×××


Prehod v refren:
D        G
Mala mala je kraljica
D        A
mala mala gospodarica
D        G
mala mala srce ti vzame
D        A
mala mala vsazga vname

                               2x
   D               G               D               A
e|-----------------------------------------------------------------|-----------------|
B|-----------------------------------------------------------------|-----------------|
G|-----------------------------------------------------------------|-----------------|
D|-7-7-7-7-7-7-7-7-----------------4-4-4-4-4-4-4-4-----------------|-7-7-7-7-7-7-7-7-|
A|-5-5-5-5-5-5-5-5-5-5-5-5-5-5-5-5-5-5-5-5-5-5-5-5-7-7-7-7-7-7-7-7-|-7-7-7-7-7-7-7-7-|
E|-----------------3-3-3-3-3-3-3-3-----------------5-5-5-5-5-5-5-5-|-5-5-5-5-5-5-5-5-|
   ×××××××××××××××××××××××××××××××××××××××××××××××××××××××××××××××


REFREN:
(igraj power akorde)

D       A        H        G
Pripoveduje le vroče stvari
D       A              H        G
na življenje gleda s svetle plati
D          A          H           G
zmeraj daje ti občutek in ta je zlo mogočen
D          A        H             G
da si zanjo ti edini ki ga ona strastno hoče

konec refrena:
   G
e|-----------------|
B|-----------------|
G|-----7-7-----7-7-|  2x
D|-0-0-5-5-0-0-5-5-|
A|-----------------|
E|-----------------|


VERZ:

Ona je iz reklame
ona je sam slika
in le cifra telefona
v tej zgodbi je resnična

   D        G        D        A
e|--------------------------------------|
B|--------------------------------------|
G|-7-7---------------7-7----------------|  2x
D|-7-7------5-5------7-7------7-7--7-7--|
A|-5-5------5-5------5-5------7-7--7-7--|
E|----------3-3---------------5-5--5-5--|

druga kitara:
   D             G             D             A
e|-10-10--10-10--10-10--10-10--10-10--10-10--9--9---9--9---|
B|-10-10--10-10--12-12--12-12--10-10--10-10--10-10--10-10--|
G|-11-11--11-11--12-12--12-12--11-11--11-11--9--9---9--9---|  2x
D|---------------------------------------------------------|
A|---------------------------------------------------------|
E|---------------------------------------------------------|


Prehod v refren:
D        G
Mala mala je kraljica
D        A
mala mala gospodarica
D        G
mala mala srce ti vzame
D        A
mala mala vsazga vname

                               2x
   D               G               D               A
e|-----------------------------------------------------------------|-----------------|
B|-----------------------------------------------------------------|-----------------|
G|-----------------------------------------------------------------|-----------------|
D|-7-7-7-7-7-7-7-7-----------------4-4-4-4-4-4-4-4-----------------|-7-7-7-7-7-7-7-7-|
A|-5-5-5-5-5-5-5-5-5-5-5-5-5-5-5-5-5-5-5-5-5-5-5-5-7-7-7-7-7-7-7-7-|-7-7-7-7-7-7-7-7-|
E|-----------------3-3-3-3-3-3-3-3-----------------5-5-5-5-5-5-5-5-|-5-5-5-5-5-5-5-5-|
   ×××××××××××××××××××××××××××××××××××××××××××××××××××××××××××××××


REFREN:
(igraj power akorde)

D       A        H        G
Pripoveduje le vroče stvari
D       A              H        G
na življenje gleda s svetle plati
D          A          H           G
zmeraj daje ti občutek in ta je zlo mogočen
D          A        H             G
da si zanjo ti edini ki ga ona strastno hoče


BRIDGE:

   D        G    A
e|--------------------|
B|--------------------|
G|-7------------------|  2x
D|-7--------5----7----|
A|-5--------5----7----|
E|-5--------3----5----|

             2x
   D          G        A
e|------------------------9---|-/12--12-12-12-12-12-12-12-|
B|-7--------------12----------|---------------------------|
G|----7-------12--------------|---------------------------|
D|-------7-------------7------|---------------------------|
A|----------------------------|---------------------------|
E|----------------------------|---------------------------|
   ¤  ¤  ¤    ¤    ¤   ¤


REFREN:
(igraj power akorde)

D       A        H        G
Pripoveduje le vroče stvari
D       A              H        G
na življenje gleda s svetle plati
D          A          H           G
zmeraj daje ti občutek in ta je zlo mogočen
D          A        H             G
da si zanjo ti edini ki ga ona strastno hoče
D          A          H           G
zmeraj daje ti občutek in ta je zlo mogočen
D          A        H             G            D
da si zanjo ti edini ki ga ona strastno hoče

trzalica bartrzalica bar

Dodaj komentar


Varnostna koda
Osveži

  Iskanje

config