tablatura akordi besedilo   Imam vse (tab) v1

trzalica.com besedilo akordi tablature

Legenda ikon:


Pogoji uporabe.    

besedilo z akordi besedilo z akordi
tablature tablatura (tabulatura)
tablature tablatura za bas
tablature videolekcija

GuitarPro GutarPro (GP)
note Note (v PDF formatu)
sibelius Sibelius (SIB), itd.
..

Oglej si še:

  Imam vse (tab) v2

trzalica bar

  ___________________________________________________________
  |  _______________________________________________________  |
  | |                                                       | |
  | | IZVAJALEC: .............. Zablujena generacija        | |
  | | PESEM: .................. Imam vse                    | |
  | | ALBUM: .................. Pop idoli                   | |
  | | LETO IZIDA: ............. 2003                        | |
  | | DOMAČA STRAN: ........... www.zablujena.com           | |
  | |_______________________________________________________| |
  | |                                                       | |
  | |   Avtor transkripcije: AliAs                          | |
  | |   Domača stran transkripcije: www.trzalica.com        | |
  | |   Datum nastanka transkripcije: 27.10.2007            | |
  | |_______________________________________________________| |
  |___________________________________________________________|

================================================================================================

LEGENDA ZNAKOV:
× = palm muted
X = Muffled
~ = let ring
\ = slide down

================================================================================================
www.trzalica.com    www.trzalica.com    www.trzalica.com    www.trzalica.com    www.trzalica.com
================================================================================================

INTRO:
   Badd11
e|--0------------------------------------------------|
B|--7------------------------------------------------|
G|--8------------------------------------------------|
D|-9-------------------------------------------------|
A|-9--------------------2--2-0-2-2-2-0-2--2-5--5-4-5-|
E|-7-------------------------------------------------|
    ~~~~~~~~~~~~~~~~~~~~

   Bm                           G              D
e|-----------------------------------------------------------|
B|-----------------------------------------------------------|
G|-----------------------------------------------------------|
D|-----------------------------------------------------------|  \
A|-2--2-5--5-4-5--2--2-5--5-4-5------5--5-4-5--0--0-7--7-5-4-|   \
E|------------------------------3--3-------------------------|    \
                                                                   \_ Druga kitara medtem igra 
   Bm                           G              A                   /  power akorde.
e|-----------------------------------------------------------|    /
B|-----------------------------------------------------------|   /
G|-----------------------------------------------------------|  /
D|-----------------------------------------------------------|
A|-2--2-5--5-4-5--2--2-5--5-4-5------5--5-4-5--0--0-7--7-5-4-|
E|------------------------------3--3-------------------------|


VERZ 1:

     Bm                          G                F#m
Mene nihče ne more ujeti   Sem kot ptica, ki se z vetrom zlepi
     Bm                            G               A
V meni je polno adrenalina   Z njim hrani moja se mašina

1. kitara:
   Bm              G       F#m     Bm              G       A
e|------------------------------------------------------------------|
B|------------------------------------------------------------------|
G|------------------------------------------------------------------|  -- palm muted
D|-4444444444444444----------------4444444444444444-----------------|
A|-2222222222222222555555554444444422222222222222225555555577777777-|
E|-----------------3333333322222222----------------3333333355555555-|

2.kitara:
   Bm              G       F#m     Bm              G       A
e|------------------------------------------------------------------|
B|------------------------------------------------------------------|
G|------------------------------------------------------------------|
D|------------------------------------------------------------------|
A|-----------------5-------4-----------------------5-------7--------|
E|-7---\---------------------------7--\-----------------------------|

Prvi prehod:
e|---------------|
B|---------------|
G|---------------|  -- 2x
D|---------------|     Druga kitara pa igra Bm power akord.
A|-2--2-5--5-4-5-|
E|---------------|

Verz:
     Bm                           G           F#m
Moje zastave zdaj vihrajo   Hočem da misli podivjajo
     Bm                          G                A
Na mene vedno sonce sije  Z njim polnim svoje baterije

1. kitara:
   Bm              G       F#m     Bm              G       A
e|------------------------------------------------------------------|
B|------------------------------------------------------------------|
G|------------------------------------------------------------------|  -- palm muted
D|-4444444444444444----------------4444444444444444-----------------|
A|-2222222222222222555555554444444422222222222222225555555577777777-|
E|-----------------3333333322222222----------------3333333355555555-|

2.kitara:
   Bm              G       F#m     Bm              G       A
e|------------------------------------------------------------------|
B|------------------------------------------------------------------|
G|------------------------------------------------------------------|
D|------------------------------------------------------------------|
A|-----------------5-------4-----------------------5-------7--------|
E|-7-------------------------------7--\-----------------------------|


Drugi prehod:
   Bm                           G              D
e|-----------------------------------------------------------|
B|-----------------------------------------------------------|
G|-----------------------------------------------------------|
D|-----------------------------------------------------------|  \
A|-2--2-5--5-4-5--2--2-5--5-4-5------5--5-4-5--0--0-7--7-5-4-|   \
E|------------------------------3--3-------------------------|    \
                                                                   \_ Druga kitara medtem igra 
   Bm                           G              A                   /  power akorde.
e|-----------------------------------------------------------|    /
B|-----------------------------------------------------------|   /
G|-----------------------------------------------------------|  /
D|-----------------------------------------------------------|
A|-2--2-5--5-4-5--2--2-5--5-4-5------5--5-4-5--0--0-7--7-5-4-|
E|------------------------------3--3-------------------------|


Verz:
     Bm                        G               F#m
Vsak moj najtrši korak   Najmočnejšim vedno dvigne tlak
     Bm                                G              A               F#m
Ne verjamem, da je vse v glavi   Delam vedno kar srce mi pravi

1. kitara:
   Bm              G       F#m     Bm              G       A       F#m
e|----------------------------------------------------------------------------------|
B|----------------------------------------------------------------------------------|
G|----------------------------------------------------------------------------------|
D|-4444444444444444----------------4444444444444444----------------4----------------|
A|-22222222222222225555555544444444222222222222222255555555777777774----------------|
E|-----------------3333333322222222----------------33333333555555552----------------|
   ×××××××××××××××××××××××××××××××××××××××××××××××××××××××××××××××× ~~~~~~~~~~~~~~~

2.kitara:
   Bm              G       F#m     Bm              G       A       F#m
e|----------------------------------------------------------------------------------|
B|----------------------------------------------------------------------------------|
G|----------------------------------------------------------------------------------|
D|------------------------------------------------------------2420-4---4--4--444444-|
A|-2224455522244555---55444---442222224455522244555---55444000----44--44-44--444444-|
E|-----------------333-----222---------------------333-------------2--22-22--222222-|
   ××××××××××××××××××××××××××××××××××××××××××××××××××××××××           ×  ×


REFREN 1:
Igraj power akorde!

      D        G        A
To je vse kar znam
         G              D
Meni nikdar ne zmanjka sanj
       G     A
Čutim da živim
                   D
Imam vse kar si želim
       G        A
To je vse kar znam
         G              D
Meni nikdar ne zmanjka sanj
       G     A
Čutim da živim
                   Bm
Imam vse kar si želim


PREHOD V VERZ 2:

   Bm
e|-----------------------------|
B|-----------------------------|
G|-4--4--X-X-X-4--4-4--X-X-X-X-|
D|-4--4--X-X-X-4--4-4--X-X-X-X-|
A|-2--2--X-X-X-2--2-2--X-X-X-X-|
E|-------X-X-X---------X-X-X-X-|

   Bm              G               Bm              A
e|-----------------3332-2003332-200---------------------------------|
B|-------------------------------------------------3332220033322200-|              \
G|------------------------------------------------------------------|               \
D|------------------------------------------------------------------|                \
A|-2-------4---5-------------------2-------4---5--------------------|                 \
E|------------------------------------------------------------------|                  \
    ~~~~~~~ ~~~ ~~~×××××××××××××××× ~~~~~~~ ~~~ ~~~××××××××××××××××                     \
                                                                                         \_ Druga kitara medtem igra 
   Bm              G               D               A               Bm        BmA Bm      /  power akorde.
e|------------------------------------------------------------------------------------| /
B|------------------------------------------------------------------------------------|
G|-4--66--77--9-99-4--66--77--9-99-10-9-77-10-9-77-777666446-------4------------------|
D|---------------------------------------------------------------------------9-7-9-\--|
A|-2--44--55--7-77-2--44--55--7-77-9--7-55-9--7-55---------------------------9-7-9-\--|
E|---------------------------------------------------------------------------7-5-7-\--|


VERZ 2:

     Bm                          G                F#m
Mene nihče ne more ujeti   Sem kot ptica, ki se z vetrom zlepi
     Bm                                G              A               F#m
Ne verjamem, da je vse v glavi   Delam vedno kar srce mi pravi

1. kitara:
   Bm              G       F#m     Bm              G       A       F#m
e|----------------------------------------------------------------------------------|
B|----------------------------------------------------------------------------------|
G|----------------------------------------------------------------------------------|
D|-4444444444444444----------------4444444444444444----------------4----------------|
A|-22222222222222225555555544444444222222222222222255555555777777774----------------|
E|-----------------3333333322222222----------------33333333555555552----------------|
   ×××××××××××××××××××××××××××××××××××××××××××××××××××××××××××××××× ~~~~~~~~~~~~~~~

2.kitara:
   Bm              G       F#m     Bm              G       A       F#m
e|----------------------------------------------------------------------------------|
B|----------------------------------------------------------------------------------|
G|---------4-----2------------------------------------------------------------------|
D|------------4-----------------------------------------------2420-4---4--4--444444-|
A|-2---------------5-------4-------2224455522244555---55444000----44--44-44--444444-|
E|-------------------------------------------------333-------------2--22-22--222222-|
                                   ×××××××××××××××××××××××××××        ×  ×


REFREN 2:
Igraj power akorde!

      D        G        A
To je vse kar znam
         G              D
Meni nikdar ne zmanjka sanj
       G     A
Čutim da živim
                   D
Imam vse kar si želim


Zaključek na D.

trzalica bar

trzalica bar

Dodaj komentar


Varnostna koda
Osveži

  Iskanje

config