tablatura akordi besedilo   Pobegli vlak (tab)

trzalica.com besedilo akordi tablature

Legenda ikon:


Pogoji uporabe.    

besedilo z akordi besedilo z akordi
tablature tablatura (tabulatura)
tablature tablatura za bas
tablature videolekcija

GuitarPro GutarPro (GP)
note Note (v PDF formatu)
sibelius Sibelius (SIB), itd.
..

   ___________________________________________________________
  |  _______________________________________________________  |
  | |                                                       | |
  | | IZVAJALEC: .............. Zablujena generacija        | |
  | | PESEM: .................. Pobegli vlak                | |
  | | ALBUM: .................. Pop idoli                   | |
  | | LETO IZIDA: ............. 2003                        | |
  | | DOMAČA STRAN: ........... www.zablujena.com           | |
  | |_______________________________________________________| |
  | |                                                       | |
  | |   Avtor transkripcije: AliAs                          | |
  | |   Domača stran transkripcije: www.trzalica.com        | |
  | |   Datum nastanka transkripcije: 8.8.2007              | |
  | |_______________________________________________________| |
  |___________________________________________________________|

================================================================================================

LEGENDA ZNAKOV:
M = MUTE
× = palm muted
/ = slide up
\ = slide down
v = vibrated
b = bend up za 1/2 tona
f = bend up za cel ton
r = release bend

================================================================================================
www.trzalica.com    www.trzalica.com    www.trzalica.com    www.trzalica.com    www.trzalica.com
================================================================================================

INTRO:

Bm          A           G              A
Proti soncu, skozi mrak, divjam kot pobegli vlak
Bm             A        G           A
Ni je moči ki me ustavi in me na kolena spravi

Kitara 1:
   Bm              A               G               A
e|-----------------------------------------------------------------|
B|-----------------------------------------------------------------|
G|-----------------------------------------------------------------|  -- 2x
D|-4-4-4-4-4-4-4-4-2-2-2-2-2-2-2-2-----------------2-2-2-2-2-2-2-2-|  palm muted
A|-2-2-2-2-2-2-2-2-0-0-0-0-0-0-0-0-5-5-5-5-5-5-5-5-0-0-0-0-0-0-0-0-|
E|---------------------------------3-3-3-3-3-3-3-3-----------------|

Kitara 2:
   Bm              A               G               A
e|-----------------------------------------------------------------|
B|-----------------------------------------------------------------|
G|-----------------------------------------------------------------|  -- 2x
D|-----------------------------------------------------------------|  palm muted
A|-2-2-5-5-4-4-5-5-0-0-5-5-4-4-5-5-----5-5-4-4-5-5-0-0-7-7-5-5-4-4-|
E|---------------------------------3-3-----------------------------|

Obe kitari:
   A
e|----------------|
B|----------------|
G|-2--------------|
D|-2--------------|
A|-0--------------|
E|----------------|

Nato prva kitara igra power akorde, druga pa po tabulaturi:
   Bm              A               G               A
e|-----------------------------------------------------------------|
B|-----------------------------------------------------------------|
G|-----------------------------------------------------------------|  -- 2x
D|-----------------------------------------------------------------|
A|-2-2-5-5-4-4-5-5-0-0-5-5-4-4-5-5-----5-5-4-4-5-5-0-0-7-7-5-5-4-4-|
E|---------------------------------3-3-----------------------------|

Obe kitari:

   Bm        D
e|----------------------|
B|----------------------|
G|-4-4---4---7--7---7---|  -- 2x
D|-4-4-444---7--7---7---|
A|-2-2-222---5--5---5---|
E|----------------------|
       ××   M  M


VERZ 1:

Bm          D          Bm           D
Jaz sem tempirana bomba, jaz sem pobegli vlak
Bm                  D           G           A
Zapravljaš dneve z mano punca, meni ni več pomoči
Bm           D         Bm          D
Sploh nimam več nadzora, stvari bežijo iz rok
Bm              D             G        A
A to je tisto stanje, kjer začutim največjo moč
In že hitim ...

          3x
   Bm        D            G        A
e|----------------------|--------------------|
B|----------------------|--------------------|
G|-4-4---4---7--7---7---|--------------------|  -- 2x
D|-4-4-444---7--7---7---|-5--------7---------|
A|-2-2-222---5--5---5---|-5--------7---------|
E|----------------------|-3--------5---------|
       ××   M  M


REFREN 1:

D           A           G              A
Proti soncu, skozi mrak, divjam kot pobegli vlak
Bm             A        G           A
Ni je moči ki me ustavi in me na kolena spravi
D           A           G              A
Proti soncu, skozi mrak, divjam kot pobegli vlak
Bm             A            G          A
Nimam miru in ne obstanka, meni vedno nekaj manjka


Prva kitara igra power akorde (glej besedilo z akordi),
druga kitara pa igra po spodnji tabulaturi:
   D        A        G        A        Bm       A        G        A
e|-------------------------------------------------------------------------|
B|-------------------------------------------------------------------------|
G|--7-6-7----7-6-7----7-6-7----9-7-9----7-6-7----7-6-7---4--------2--------|  -- 2x
D|-------------------------------------------------------------------------|
A|-------------------------------------------------------------------------|
E|-------------------------------------------------------------------------|


PREHOD V VERZ 2:

Kitara 1:
   Bm              A               G               A
e|-----------------------------------------------------------------|
B|-----------------------------------------------------------------|
G|-----------------------------------------------------------------|  -- 2x
D|-----------------------------------------------------------------|  palm muted
A|-2-2-5-5-4-4-5-5-0-0-5-5-4-4-5-5-----5-5-4-4-5-5-0-0-7-7-5-5-4-4-|
E|---------------------------------3-3-----------------------------|

Kitara 2:
   Bm         A          G          A
e|---------------------------------------------|
B|---------------------------------------------|
G|-4-4--------2-2-2-2-----------------------2--|  -- 2x
D|-4-4--------2-2-2-2-------------------2-2----|
A|-2-2--------0-0-0-0----5----------0-0--------|
E|-------------------------3-------------------|
       M              M      M

Obe kitari:
   Bm        D
e|----------------------|
B|----------------------|
G|-4-4---4---7--7---7---|  -- 2x
D|-4-4-444---7--7---7---|
A|-2-2-222---5--5---5---|
E|----------------------|
       ××   M  M


VERZ 2:

Bm              D    Bm               D
Pravijo naj se umirim, zakaj vedno stran bežim
Bm                D        G          A
Jaz hočem le malo akcije, prave satisfakcije
Bm               D         Bm             D
Ker jaz sem tempirana bomba, jaz sem ponoreli vlak
Bm               D             G        A
In to je tisto stanje, kjer začutim največjo moč
In že hitim ...

           3x
   Bm        D            G        A
e|----------------------|--------------------|
B|----------------------|--------------------|
G|-4-4---4---7--7---7---|--------------------|  Sredi verza se začne ta del z drugim delom te tabulature
D|-4-4-444---7--7---7---|-5--------7---------|
A|-2-2-222---5--5---5---|-5--------7---------|
E|----------------------|-3--------5---------|
       ××   M  M


REFREN 2:

D           A           G              A
Proti soncu, skozi mrak, divjam kot pobegli vlak
Bm             A        G           A
Ni je moči ki me ustavi in me na kolena spravi
D           A           G              A
Proti soncu, skozi mrak, divjam kot pobegli vlak
Bm             A            G          A
Nimam miru in ne obstanka, meni vedno nekaj manjka


Prva kitara igra power akorde (glej besedilo z akordi),
druga kitara pa igra po spodnji tabulaturi:
   D        A        G        A        Bm       A        G        A
e|-------------------------------------------------------------------------|
B|-------------------------------------------------------------------------|
G|--7-6-7----7-6-7----7-6-7----9-7-9----7-6-7----7-6-7---4--------2--------|  -- 2x
D|-------------------------------------------------------------------------|
A|-------------------------------------------------------------------------|
E|-------------------------------------------------------------------------|


BRIDGE:

   Bm      A       G       A
e|-7-7-7-7-7-7-7-7-7-7-7-7-7-7-7-7-|
B|-7-7-7-7-7-7-7-7-7-7-7-7-7-7-7-7-|
G|-7-7-7-7-6-6-6-6-4-4-4-4-6-6-6-6-|  -- 3x
D|---------------------------------|
A|---------------------------------|
E|---------------------------------|

   Bm
e|-7-7-7-7-7-7-7-7-7-7-7-7-7-7-7-7-|
B|-7-7-7-7-7-7-7-7-7-7-7-7-7-7-7-7-|
G|-7-7-7-7-7-7-7-7-7-7-7-7-7-7-7-7-|
D|---------------------------------|
A|---------------------------------|
E|---------------------------------|


SOLO:

   Bm
e|-----------------------------|
B|-----9v9v----------9v9v--9---|
G|-7-9-9v9v--7---7-9-9v9v--9---| začetek sola se začne že v bridge-u
D|-----------------------------|
A|-----------------------------|
E|-----------------------------|

   Bm       A         G       A            Bm       A        G        A
e|------------------------------------------------------------------------------|
B|-9b-------9b--9brbr-7--------------------12-------14-------15-------15-f----\-|
G|-9b-------9b--9brbr-----------------7-9\-14f------16f------17f----------------|
D|--------------------------------7-9-------------------------------------------|  druga kitara igra power akorde
A|----------------------------7-9-----------------------------------------------|
E|------------------------------------------------------------------------------|


REFREN 3:

D           A           G              A
Proti soncu, skozi mrak, divjam kot pobegli vlak
Bm             A        G           A
Ni je moči ki me ustavi in me na kolena spravi
D           A           G              A
Proti soncu, skozi mrak, divjam kot pobegli vlak
Bm             A            G          A
Nimam miru in ne obstanka, meni vedno nekaj manjka


Prva kitara igra power akorde (glej besedilo z akordi),
druga kitara pa igra po spodnji tabulaturi:
   D        A        G        A        Bm       A        G        A
e|-------------------------------------------------------------------------|
B|-------------------------------------------------------------------------|
G|--7-6-7----7-6-7----7-6-7----9-7-9----7-6-7----7-6-7---4--------2--------|  -- 4x
D|-------------------------------------------------------------------------|
A|-------------------------------------------------------------------------|
E|-------------------------------------------------------------------------|


Konec:
   Bm
e|-7-7-7-7-7-7-7-7-7-7-7-7-7-7-7-7-|
B|-7-7-7-7-7-7-7-7-7-7-7-7-7-7-7-7-|
G|-7-7-7-7-7-7-7-7-7-7-7-7-7-7-7-7-|
D|---------------------------------|
A|---------------------------------|
E|---------------------------------|

trzalica bartrzalica bar

Dodaj komentar


Varnostna koda
Osveži

  Iskanje

config