tablatura akordi besedilo   Pop idol (tab)

trzalica.com besedilo akordi tablature

Legenda ikon:


Pogoji uporabe.    

besedilo z akordi besedilo z akordi
tablature tablatura (tabulatura)
tablature tablatura za bas
tablature videolekcija

GuitarPro GutarPro (GP)
note Note (v PDF formatu)
sibelius Sibelius (SIB), itd.
..

   ___________________________________________________________
  |  _______________________________________________________  |
  | |                                                       | |
  | | IZVAJALEC: .............. Zablujena generacija        | |
  | | PESEM: .................. Pop idol                    | |
  | | ALBUM: .................. Pop idoli                   | |
  | | LETO IZIDA: ............. 2003                        | |
  | | DOMAČA STRAN: ........... www.zablujena.com           | |
  | |_______________________________________________________| |
  | |                                                       | |
  | |   Avtor transkripcije: AliAs                          | |
  | |   Domača stran transkripcije: www.trzalica.com        | |
  | |   Datum nastanka transkripcije: 29.11.2007            | |
  | |_______________________________________________________| |
  |___________________________________________________________|

================================================================================================

LEGENDA ZNAKOV:
M = MUTE
× = palm muted
p = pull off
h = hammer on
/ = slide up
\ = slide down
f = bend up za cel ton
b = bend up za 1/2 tona

Clean dele v verzih odigraj s prsti in NE s trzalico!

================================================================================================
www.trzalica.com    www.trzalica.com    www.trzalica.com    www.trzalica.com    www.trzalica.com
================================================================================================

INTRO % VERZ 1:

   Am       C           F                Am       C           F
e|---------------------------------------------------------------------------------|
B|---------------------------------------------------------------------------------|
G|-----2--2-----5-5--------------------------2--2-----5-5--------------------------|
D|-----2--2-----5-5---------3----3-----------2--2-----5-5---------3--------3-------|
A|-0--------0h3-----3p0-----3----3h5p3---0--------0h3-----3p0-----3------3-3h5p3---|
E|----------------------1--------------5----------------------1------3/5---------5-|
                             M                                     M

     Am              C          F
Še 1x me poljubi in pribij me gor na zid
     Am          C         F
Lahko bežiš, a ne moreš se mi skrit
     Am              C             F
Moje orožje je nasmeh, ne rabim besed
     Am              C      F             Am    C
Ko tiho se plazim v tvoj mali svet
        F             Am   C    F
V tvoj mali svet

   Am       C           F                      Am       C           F
e|------------------------------------------------------------------------------------------|
B|------------------------------------------------------------------------------------------|
G|-----2--2-----5-5--------------------------------2--2-----5-5------------------5--7p5-7/9-|
D|-----2--2-----5-5---------3----------3-----------2--2-----5-5---------3--3-5/7------------|
A|-0--------0h3-----3p0-----3--------3-3h5p3---0--------0h3-----3p0-----3-------------------|
E|----------------------1------1-3/5---------5----------------------1-----------------------|

   Am       C           F
e|---------------------------------------------|
B|---------------------------------------------|
G|-----2--2-----5-5----------------------------|  -- 2x
D|-----2--2-----5-5---------3----------3-------|
A|-0--------0h3-----3p0-----3--------3-3h5p3---|
E|----------------------1------1-3/5---------5-|

     Am               C         F
Ko zjutraj vstaneš, zvečer ko ležeš spat
     Am                C      F
S pogledom te božam, diham ti za vrat
     Am             C      F
Čist kot belilo, udarjam kot mamilo
      G
Naj uporniki podrejo barikade
Naj padajo kralji, naj se menjajo vlade

                            3x                    2x        2x
   F         Am      C       F                 G         G
e|---------|---------------------------------|---------|-3-3-3-3-|
B|---------|---------------------------------|---------|-3-3-3-3-|
G|---------|---------------------------------|---------|-4-4-4-4-|
D|---------|---------5-5-5-5-----------------|-5-5-5-5-|-5-5-5-5-|
A|---------|-7-7-7-7-3-3-3-3-3-3-3-3-3-3-333-|-5-5-5-5-|-5-5-5-5-|
E|-5-5-855-|-5-5-5-5---------1-1-1-1-1-1-111-|-3-3-3-3-|-3-3-3-3-|
   ×××××××   ×××××××××××××××××××××××××××××××

REFREN 1:
(Igraj power akorde)

     C         F      G       A#
Jaz ostajam tvoj, po***** pop idol    \
     C          F      G                       \
Ja, za vedno tvoj, po***** pop idol     \_ 2x (v drugi ponovitvi je besedilo brez besede 'tvoj')
     C         F      G       A#                /
Jaz ostajam tvoj, po***** pop idol     /
     C          F     G                       /
Hočem biti tvoj, po***** pop idol

V drugi ponovitvi igra druga kitara naslednje prijeme:
   C   F   G   A#  C   F   G   G
e|-8-----------6---12----------10---|
B|-8-----------6---13----------11---|
G|----------------------------------|
D|----------------------------------|
A|----------------------------------|
E|----------------------------------|


VERZ 2:

   Am       C           F
e|---------------------------------------------|
B|---------------------------------------------|
G|-----2--2-----5-5----------------------------|  -- 2x
D|-----2--2-----5-5---------3----------3-------|
A|-0--------0h3-----3p0-----3--------3-3h5p3---|
E|----------------------1------1-3/5---------5-|

     Am              C          F
Še 1x me poljubi in pribij me gor na zid
     Am          C         F
Lahko bežiš, a ne moreš se mi skrit
           Am C F               Am C F
Ne moreš skrit,     ne moreš skrit

                 3x
   Am      C       F                 Am      C       F
e|---------------------------------|-----------------------------------|
B|---------------------------------|-----------------------------------|
G|---------------------------------|-----------------------------------|
D|---------5-5-5-5-----------------|---------5-5-5-5---3-3-3-----------|
A|-7-7-7-7-3-3-3-3-3-3-3-3-3-3-333-|-7-7-7-7-3-3-3-3-3-3-3-3-0-3-5p3p0-|
E|-5-5-5-5---------1-1-1-1-1-1-111-|-5-5-5-5---------1-1-1-1-----------|
   ×××××××××××××××××××××××××××××××   ×××××××××××××××××

  Am
e|-------5---------------------5--------------------|
B|----5-----5---------------5-----5-----------------|
G|--------------------------------------------------|  Druga kitara
D|-7---------------------7--------------------------|  ('Ne moreš skrit')
A|--------------------------------------------------|
E|--------------------------------------------------|

     Am               C        F
Sem v tvoji glavi, prebadam ti srce
     Am            C     F
Lahko te gledam kamor vsak ne sme
     Am             C      F
Čist kot belilo, udarjam kot mamilo
      G
Naj uporniki podrejo barikade
Naj padajo kralji, naj se menjajo vlade

                 3x                    2x        2x
   Am      C       F                 G         G
e|---------------------------------|---------|-3-3-3-3-|
B|---------------------------------|---------|-3-3-3-3-|
G|---------------------------------|---------|-4-4-4-4-|
D|---------5-5-5-5-----------------|-5-5-5-5-|-5-5-5-5-|
A|-7-7-7-7-3-3-3-3-3-3-3-3-3-3-333-|-5-5-5-5-|-5-5-5-5-|
E|-5-5-5-5---------1-1-1-1-1-1-111-|-3-3-3-3-|-3-3-3-3-|
   ×××××××××××××××××××××××××××××××

   Am      C      F
e|-----5------5------5-----|
B|-----5------5------6-----|
G|-------------------------|  -- 2x
D|-------------------------|  Druga kitara
A|-------------------------|
E|-------------------------|


REFREN 2:
(Igraj power akorde)

     C         F      G       A#
Jaz ostajam tvoj, po***** pop idol
     C          F      G
Ja, za vedno tvoj, po***** pop idol
     C         F      G       A#
Jaz ostajam tvoj, po***** pop idol
     C          F     G
Hočem biti tvoj, po***** pop idol

     A#       C              F
Še 1x me poljubi in vrzi me v smeti
     A#               C             F
Jutri gledal spet te bom naravnost v oči
     A#           C             F
Imam milijon obrazov, zmeraj drugo ime
     A#        C            F             C
Jaz ostajam tvoj pofukan pop idol

   A#  C   F            A#  C   F            A#  C   F               A#  C   F
e|-------------------------------------------------------------------------------------------|
B|---------13--13--13-----------13--13---------------13--13--15--------------13--13----------|
G|---------15f-15f-15f----------15f-15f-12b----------15f-15f----15f----------15f-15f-12b-----|  Solo, druga kitara
D|-------------------------------------------------------------------------------------------|
A|-------------------------------------------------------------------------------------------|
E|-------------------------------------------------------------------------------------------|


REFREN 3:
(Igraj power akorde)

                      G       A#
Jaz ostajam tvoj, po***** pop idol    \
     C          F      G                       \
Ja, za vedno tvoj, po***** pop idol     \_ 2x
     C         F      G       A#                /
Jaz ostajam tvoj, po***** pop idol     /
     C          F     G                       /
Hočem biti tvoj, po***** pop idol

V drugi ponovitvi igra druga kitara naslednje prijeme:
   C   F   G   A#  C   F   G   G
e|-8-----------6---12----------10---|
B|-8-----------6---13----------11---|
G|----------------------------------|
D|----------------------------------|
A|----------------------------------|
E|----------------------------------|

Zaključek:
   C
e|------------|
B|------------|
G|-5-5-5---5--|
D|-5-5-5---5--|
A|-3-3-3-0-3--|
E|------------|



DODATEK (04:38):

          2x                 2x
e|-----------------|------------------|
B|-----------------|------------------|
G|-----------------|------------------|
D|-0-3-0-3-7--5--3-|-0-3-0-3----------|
A|---------7--5--3-|------------------|
E|---------5--3--1-|---------5--3--1--|

          3x
e|-----------------|-----------------|
B|-----------------|-----------------|
G|-9-9-9-9---------|-9-9-9-9-9\------|
D|-9-9-9-9-7-7-7-7-|-9-9-9-9-9\------|
A|-7-7-7-7-7-7-7-7-|-7-7-7-7-7\------|
E|---------5-5-5-5-|-----------------|

          2x                 2x
e|-----------------|------------------|
B|-----------------|------------------|
G|-----------------|------------------|
D|-----------------|-0-3-0-3----------|
A|-----------------|------------------|
E|---------5--3--1-|---------5--3--1--|

          3x
e|-----------------|-----------------|
B|-----------------|-----------------|
G|-9-9-9-9---------|-9-9-9-9-9\------|
D|-9-9-9-9-7-7-7-7-|-9-9-9-9-9\------|
A|-7-7-7-7-7-7-7-7-|-7-7-7-7-7\------|
E|---------5-5-5-5-|-----------------|

          4x
e|-----------------|-------|
B|-----------------|-------|
G|-----------------|-------|
D|-0-3-0-3---------|-7-----|
A|-----------------|-5-----|
E|---------5--3--1-|-5-----|


trzalica bartrzalica bar

Dodaj komentar


Varnostna koda
Osveži

  Iskanje

config