tablatura akordi besedilo   Samer hit 13 (tab)

trzalica.com besedilo akordi tablature

Legenda ikon:


Pogoji uporabe.    

besedilo z akordi besedilo z akordi
tablature tablatura (tabulatura)
tablature tablatura za bas
tablature videolekcija

GuitarPro GutarPro (GP)
note Note (v PDF formatu)
sibelius Sibelius (SIB), itd.
..

   ___________________________________________________________
  |  _______________________________________________________  |
  | |                                                       | |
  | | IZVAJALEC: .............. Zablujena generacija        | |
  | | PESEM: .................. Samer hit 13                | |
  | | ALBUM: .................. Pop Idoli                   | |
  | |_______________________________________________________| |
  | |                                                       | |
  | |   Avtor transkripcije: AliAs                          | |
  | |   Domača stran transkripcije: www.trzalica.com       | |
  | |   Datum nastanka transkripcije: 15.1.2008             | |
  | |_______________________________________________________| |
  |___________________________________________________________|

================================================================================================

LEGENDA ZNAKOV:

/ = slide up
\ = slide down


        G  3 5 5 X X  
        C  X 3 5 5 X
        D  X 5 7 7 X
        E  0 2 2 X X

================================================================================================
www.trzalica.com    www.trzalica.com    www.trzalica.com    www.trzalica.com    www.trzalica.com
================================================================================================


Uvodni verz: G C D

e|---------------------------------|
B|---------------------------------|
G|-------------------------------4-|
D|---555-5-7-5-4-5---555-5-7-5-7---|
A|-----------------3---------------|
E|-3-------------------------------|

V zraku cutim super dan
In bil bi greh, ce bil bi danes jaz zaspan
Nekaj v meni hoce dalec stran
Uživat sreco v popoln dan.

Prehod: G D C D

e|-----------------------------------------------------------------|-----|
B|-----------------------------------------------------------------|-----|
G|-------------------------------4---------------------------------|-----|
D|---555-5-7-5-4-5---555-5-7-5-7-----555-5-7-5-4-5---555-5-4-4-----|-5---|
A|-----------------3-------------------------------3-----------5-5-|-----|
E|-3-------------------------------3-------------------------------|-----|


Verz 2: G C D

e|----------------------------------------------------------------------------------------------------------|
B|----------------------------------------------------------------------------------------------------------|
G|----------------------------------------------------------------------------------------------------------|
D|----5----------7-----5----------4-5-7----5----------7-----5----5-5-5-5-5-5-5-5-5-5-5----5-5-5----5--------|
A|-------5-3--5-----------5-3--5--------------5-3--5-----------5-3-3-3-3-3-3-3-3-5-5-5----5-5-5----5--------|
E|-3----------------3-------------------3----------------3-----------------------3-3-3----3-3-3----3--------|

Val vrocine naj vse stopi
Le mrzla tekocina naj misli mi hladi
Da pozabim na vse skrbi
Razbijem sivino dolgocasnih dni.

REFREN: G D C

Problemov sto, kot da jih ni
V planu tisoc imam stvari
Svojim sanjam dajem prosto pot
Hormone srece spušcam na prostost.


Prehod: G D C D

e|---------------------------------------------------------------------|
B|---------------------------------------------------------------------|
G|-------------------------------4-------------------------------------|
D|---555-5-7-5-4-5---555-5-7-5-7-----555-5-7-5-4-5---555-5-4-4-----5---|
A|-----------------3-------------------------------3-----------5-5-----|
E|-3-------------------------------3-----------------------------------|


Verz 3:
G
G     D    C    D
Smer je ena in edina sama
G        D           C    D
Izbrana destinacija je morska obala
G     D    C    D
Cutim veter piha v pravo smer
G         D     C
Na surfu srece jadram na izbrani cilj
G


REFREN: G D C

Problemov sto, kot da jih ni
V planu tisoc imam stvari
Svojim sanjam dajem prosto pot
Hormone srece spušcam na prostost.


BRIDGE: G E C D

e|-3----------3----------3----------5----------|
B|----3----3-----3----3-----3----3-----7----7--|
G|-------0----------0----------0----------7----|
D|---------------------------------------------|
A|---------------------------------------------|
E|---------------------------------------------|

Pazi to ni kalifornikejšn
Je korak bližje do pozitiv vabrejšn
Okoli mene ni dalec oceana
Pristal sem direktno na sredi Jadrana.

SOLO: G D C D

e|-----------------------------------------------------------|
B|-----------------------------------------------------------|
G|------------------------5-5-5------------------------------|
D|-7/9-7/9-7/9-7-5-7-\----------5-\--7/9-7/9-7-5-7--5--4--5--|
A|----------------------5------------------------------------|
E|-----------------------------------------------------------|

e|-----------------------------------------------------------|
B|-----------------------------------------------------------|
G|---------------------5-5-5---------------------------------|
D|--7/9-7/9-7-5-7-\----------5-\--7/9-7/9-7-5-7--5--4-----5--|
A|-------------------5---------------------------------------|
E|-----------------------------------------------------------|


REFREN: G D C

Problemov sto, kot da jih ni
V planu tisoc imam stvari
Svojim sanjam dajem prosto pot
Hormone srece spušcam na prostost.

ZAKLJUČEK:
e|------------------|
B|------------------|
G|------------------|
D|----5----------7--|
A|-------5-3--5-----|
E|-3----------------|
trzalica bartrzalica bar

Dodaj komentar


Varnostna koda
Osveži

  Iskanje

config