tablatura akordi besedilo   Superboy (tab)

trzalica.com besedilo akordi tablature

Legenda ikon:


Pogoji uporabe.    

besedilo z akordi besedilo z akordi
tablature tablatura (tabulatura)
tablature tablatura za bas
tablature videolekcija

GuitarPro GutarPro (GP)
note Note (v PDF formatu)
sibelius Sibelius (SIB), itd.
..

         _______________________________________________________
        |                                                       |
        | IZVAJALEC: ..................... Zablujena generacija |
        | PESEM: ......................... Superboy             |
        | ALBUM: ......................... Pozitiv vajbrejšan   |
        |_______________________________________________________|
        |                                                       |
        |  Vrsta transkripcije: Tablatura in besedilo z akordi  |
        |  Avtor transkripcije: AliAs                           |
        |  Domača stran transkripcije: www.trzalica.com         |
        |  Datum nastanka transkripcije: 15.1.2007              |
        |_______________________________________________________|
 
================================================================================================
 
LEGENDA ZNAKOV:
  M = MUTE
  × = palm muted
  \ = slide down
  ^ = Bend up
 
Prijemi akordov:
   Gm   A#   D#   C5   F   D
e|-3----6----------------------|
B|-3----6----8---------10--7---|
G|-3----7----8----5----10--7---|
D|-5----8----8----5----10--7---|
A|-5----8----6----3----8---5---|
E|-3----6----------------------|
 
================================================================================================
 
INTRO:
 
 (Gm  A#  D#  C5 ) -> 8x
 
Jaz sem superboy, v moji glavi je totaln distroy
Lokalni, supersonični, galaktični kavboj
    C5          D
Po mojih žilah teče kerozin
   D#                    F
Nikoli ne spim, ker jaz sem
 
Superboy - Superboy
 
   Gm      A#      D#     Gm      A#      D#  C5
e|--------------------------------------------------|
B|--------------------------------------------------|
G|-----------------8----------------------8-8-5-----|
D|-5-5-5-5-8-8-8-8-8------5-5-5-5-8-8-8-8-8-8-5-----|
A|-5-5-5-5-8-8-8-8-6------5-5-5-5-8-8-8-8-6-6-3-----|
E|-3-3-3-3-6-6-6-6--------3-3-3-3-6-6-6-6-----------|
                     M                          M
 
 
VERZ 1:
 
 (Gm  A#  D#  C5 ) -> 4x
 
Moja črna duša je cigan, moj znak je pikov as
Tja do zmage, do vrhunca, popeljem te zlo počas
    C5          D
Po mojih žilah teče kerozin
   D#                    F
Nikoli ne spim, ne, ne ...
 
Kitara 1:
   Gm     A#     D#     C5
e|--6------10-----11-----8------|
B|----8------11-----11-----8----|
G|------------------------------|  -- 4x
D|------------------------------|
A|------------------------------|
E|------------------------------|
         M      M      M      M
 
Kitara 2:
   Gm      A#      D#      C5
e|---------------------------------|
B|---------------------------------|
G|---------------------8-------5---|  -- 2x
D|-----5-------8---8-8-8---5-5-5---|
A|-5-5-5---8-8-8---6-6-6---3-3-3---|
E|-3-3-3---6-6-6-------------------|
   × ×     × ×     × ×     × ×
 
Po mojih žilah...
   C5     D      D#     F
e|-------------------------------------------------|
B|-------------------------10^-10^-10^-10^-10-10\\-|
G|-5------7------8------10-10^-10^-10^-10^-10-10\\-|
D|-5------7------8------10-------------------------|
A|-3------5------6------8--------------------------|
E|-------------------------------------------------|
 
 
REFREN 1:
 
     A#            D#            F             D#              A#
        Kakor da svet pred mano leži, čas je zdej na moji strani
     A#           D#              F       D#          A#
        Dogajajo se le dobre stvari, ali čutiš tudi ti
     A#            D#            F             D#              A#
        Kakor da svet pred mano leži, čas je zdej na moji strani
     A#           D#              F         D#
        Dogajajo se le dobre stvari, čutim da nocoj sem
 
   A#          D#            F         D#
e|---------------------------------------------------|
B|---------------------------------------------------|
G|-3--3--3-5-7-8--8-8-7--7-7-5--5--5-5-8--8-8-7--7-5-|  -- 4x
D|---------------------------------------------------|
A|-1--1--1-3-5-6--6-6-5--5-5-3--3--3-3-6--6-6-5--5-3-|
E|---------------------------------------------------|
 
        Superboy - Super - Superboy
 
   Gm      A#      D#      Gm      A#      D#  C5    Gm      A#      D#
e|-----------------------|--------------------------------------------------|
B|--------- 2x ----------|--------------------------------------------------|
G|-----------------8-----|-----------------8-8-5---------------------8------|
D|-5-5-5-5-8-8-8-8-8-----|-5-5-5-5-8-8-8-8-8-8-5-----5-5-5-5-8-8-8-8-8------|
A|-5-5-5-5-8-8-8-8-6-----|-5-5-5-5-8-8-8-8-6-6-3-----5-5-5-5-8-8-8-8-6------|
E|-3-3-3-3-6-6-6-6-------|-3-3-3-3-6-6-6-6-----------3-3-3-3-6-6-6-6--------|
                     M                          M
 
 
SOLO prehod v verz:
 
kitara 1 (palm muted):
   Gm                Gm              D#              A#              C5      D
e|-----------------|-----------------------------------------------------------------|
B|------ 2x -------|------------------------------- 2x ------------------------------|
G|-----------------|-----------------------------------------------------------------|
D|-----------------|-----------------8-8-8-8-8-8-8-8-----------------5-5-5-5-7-7-7-7-|
A|-5-5-5-5-5-5-5-5-|-5-5-5-5-5-5-5-5-6-6-6-6-6-6-6-6-8-8-8-8-8-8-8-8-3-3-3-3-5-5-5-5-|
E|-3-3-3-3-3-3-3-3-|-3-3-3-3-3-3-3-3-----------------6-6-6-6-6-6-6-6-----------------|
 
kitara 2 (solo):
   Gm     D#     A#     C5  D    Gm     D#     A#     C5  D
e|-3------3------6------8---10---3------3------6--------------|
B|-3------4------6------8---10---3------4------6--------------|
G|----------------------------------------------------5---7---|
D|----------------------------------------------------5---7---|
A|----------------------------------------------------3---5---|
E|------------------------------------------------------------|
 
 
VERZ 2:
 
 (Gm  A#  D#  C5 ) -> 4x
 
Nič mi ne pomeni Armani, Gucci, Motorolla
Men je važno le da špila "Zablujena", cazzo od rokenrola
    C5          D
Po mojih žilah teče kerozin
   D#                    F
Nikoli ne spim, ne, ne ...
 
Kitara 1:
   Gm     A#     D#     C5
e|--6------10-----11-----8------|
B|----8------11-----11-----8----|
G|------------------------------|  -- 4x
D|------------------------------|
A|------------------------------|
E|------------------------------|
         M      M      M      M
 
Kitara 2:
   Gm      A#      D#      C5
e|---------------------------------|
B|---------------------------------|
G|---------------------8-------5---|  -- 2x
D|-----5-------8---8-8-8---5-5-5---|
A|-5-5-5---8-8-8---6-6-6---3-3-3---|
E|-3-3-3---6-6-6-------------------|
   × ×     × ×     × ×     × ×
 
Po mojih žilah...
   C5     D      D#     F
e|-------------------------------------------------|
B|-------------------------10^-10^-10^-10^-10-10\\-|
G|-5------7------8------10-10^-10^-10^-10^-10-10\\-|
D|-5------7------8------10-------------------------|
A|-3------5------6------8--------------------------|
E|-------------------------------------------------|
 
 
REFREN 2:
 
     A#            D#            F             D#              A#
        Kakor da svet pred mano leži, čas je zdej na moji strani
     A#           D#              F       D#          A#
        Dogajajo se le dobre stvari, ali čutiš tudi ti
     A#            D#            F             D#              A#
        Kakor da svet pred mano leži, čas je zdej na moji strani
     A#           D#              F         D#
        Dogajajo se le dobre stvari, čutim da nocoj sem
 
   A#          D#            F         D#
e|---------------------------------------------------|
B|---------------------------------------------------|
G|-3--3--3-5-7-8--8-8-7--7-7-5--5--5-5-8--8-8-7--7-5-|  -- 8x
D|---------------------------------------------------|
A|-1--1--1-3-5-6--6-6-5--5-5-3--3--3-3-6--6-6-5--5-3-|
E|---------------------------------------------------|
 
 
Prehod (palm muted):
   A#
e|-----------------|
B|-----------------|
G|-----------------|  -- 2x
D|-3-3-3-3-3-3-3-3-|
A|-1-1-1-1-1-1-1-1-|
E|-----------------|
 
V zadnji (drugi) ponovitvi refrena, ena kitara igra akorde, druga pa po zgornji tabulaturi.
 
 
OUTRO:
 
        Superboy - Super - Superboy
 
   Gm      A#      D#      Gm      A#      D#  C5    Gm      A#      D#
e|-----------------------|--------------------------------------------------|
B|--------- 2x ----------|--------------------------------------------------|
G|-----------------8-----|-----------------8-8-5---------------------8------|
D|-5-5-5-5-8-8-8-8-8-----|-5-5-5-5-8-8-8-8-8-8-5-----5-5-5-5-8-8-8-8-8------|
A|-5-5-5-5-8-8-8-8-6-----|-5-5-5-5-8-8-8-8-6-6-3-----5-5-5-5-8-8-8-8-6------|
E|-3-3-3-3-6-6-6-6-------|-3-3-3-3-6-6-6-6-----------3-3-3-3-6-6-6-6--------|
                     M                          M                      M
 


trzalica bartrzalica bar

Dodaj komentar


Varnostna koda
Osveži

  Iskanje

config