tablatura akordi besedilo   Sentiš navadni (tab)

trzalica.com besedilo akordi tablature

Legenda ikon:


Pogoji uporabe.    

besedilo z akordi besedilo z akordi
tablature tablatura (tabulatura)
tablature tablatura za bas
tablature videolekcija

GuitarPro GutarPro (GP)
note Note (v PDF formatu)
sibelius Sibelius (SIB), itd.
..

Vse verzije te pesmi:    besedilo z akordi  Sentiš navadni       Sentiš navadni (tab)       Sentis navadni - uvod (gp)

trzalica bar

 Izvajalec: ..................... Zmelkoow
 Skladba: ....................... Sentiš (navadni)
  Album: ......................... Čiko, Pajo In Pako
 Leto izida: .................... 1996
 Transkripcijo izdelal .......... George & AliAs
 Vrsta transkripcije ............ Besedilo z akordi in tablatura
 Domača stran transkripcije ..... www.trzalica.com

================================================================================================

Pol tona nižja uglasitev!

Intro:


    C              Gm     Dm  Fm
Eb|---------------------------------------|
Bb|---------------------------------------|
Gb|-------0-------------------------------|
Db|---0h2---2-----------------------------|
Ab|-3----------3---1----4-5-------3-5-5/7-|
Eb|------------------3--------1-4---------|
 
    C              Gm      Dm          Fm
Eb|------------------------------------------------|
Bb|------------------------------------------------|
Gb|-------0----------------------------------------|
Db|---0h2---2--------------------------------------|
Ab|-3----------3---1----3--3/8-7-5-3-------3-5-5/7-|
Eb|------------------3-----------------1-4---------|

Verse:

      C            Gm                     Dm       Fm
Ko si dobra, ko se poskušaš upirat in upaš, da ti ne bom verjel,
      C    Gm                       Dm Fm
ko skrbno skrivaš svoje misli, ne bom ti jih vzel.
      C              Gm                  Dm              Fm
Dosti prelepa, da bi b'la hudobna, kot hočes bit,
      C      Gm                 Dm                   Fm
mogoče sva si prepodobna, da te ne bi razumel. 

Eb|------------------------|------------------------|------------------------------|---------------|
Bb|------------------------|------------------------|------------------------------|---------------|
Gb|------------------------|------------------------|------------------------------|---------------|
Db|--------2h3p2---2h3p2---|--------2h3p2---2h3p2---|-------2h3p2----------2h3p2---|-------2h3p2---|
Ab|---3-5--------5-------3-|---3-5--------5-------3-|---3-5-------5----3-5-------3-|---3-5-------5-|
Eb|-3----------------------|-3----------------------|-3--------------1-------------|-3-------------|


Refren:

        Am C         Gm             Dm
Ne skrivaj se, ne morem več,
     Am    C      Gm              Dm
ne beži mi, rad bi probal s tabo umret.
     Am    C         Gm          Dm
Ne dvomi zdaj, nimam moči, da bi lagal
     Am    C         Gm         Dm
ne umikaj se, rad bi te samo držal.


Eb|---5-----5---------8-----8--------3-----3--------------5------5-----5--5-----|
Bb|-----5-----5---------8-----8--------3-----3----------6-----6p5----5------5---|
Gb|-------5-----5---------9-----9--------3-----3------5-----5------5----------5-|
Db|-7--------------10--------------5--------------7-----------------------------|
Ab|-----------------------------------------------------------------------------|
Eb|-----------------------------------------------------------------------------|
*zadnji takt refrena samo Dm

Solo:

 Am C G Dm 2x

Eb|-------------------------------------------------------------------------------------|
Bb|-------------------------------------------------------------------------------------|
Gb|--------------------------------------------------------------------------------7*---|
Db|-2--2-3-5-3-2--2-3-5-3------2-3-2----2p0------2-3-5-3-2--2-3-5-3------2-3-2-------7*-|
Ab|-----------------------5--5-------5------3-0---------------------5--5-------5--------|
Eb|-------------------------------------------------------------------------------------|

Verse:..........

Refren:..........

Outro:

  C Gm Dm(Dm7) Fm(Fm7)

Eb|---------------------------------------|
Bb|---------------------------------------|
Gb|-------0-------------------------------|
Db|---0h2---2-----------------------------|
Ab|-3----------3---1----4-5-------3-5-5/7-|
Eb|------------------3--------1-4---------|

  C Gm Dm(Dm7) Fm(Fm7)

Eb|------------------------------------------------|
Bb|------------------------------------------------|
Gb|-------0----------------------------------------|
Db|---0h2---2--------------------------------------|
Ab|-3----------3---1----3--3/8-7-5-3-------3-5-5/7-|
Eb|------------------3-----------------1-4---------|

  C Gm(Gm7) Dm(Dm7) Fm(Fm7)

Eb|------------------------------------------|
Bb|------------------------------------------|
Gb|-------0----------------------------------|
Db|---0h2---2--------------------------------|
Ab|-3----------3---1----4-5-4-5------3-5-5/7-|
Eb|------------------3-----------1-4---------|

  C Gm Dm Fm

Eb|--------------------|
Bb|--------------------|
Gb|-------0------------|
Db|---0h2---2----------|
Ab|-3----------3---1---|
Eb|------------------3-|


trzalica bar

 

trzalica bar

 Exibicionisti na Forumu

trzalica bar

 

Dodaj komentar


  Iskanje

config