Logo

tablatura akordi besedilo   Marijana (tab)

trzalica.com besedilo akordi tablature

Legenda ikon:


Pogoji uporabe.    

besedilo z akordi besedilo z akordi
tablature tablatura (tabulatura)
tablature tablatura za bas
tablature videolekcija

GuitarPro GutarPro (GP)
note Note (v PDF formatu)
sibelius Sibelius (SIB), itd.
..

 

...........................
.Marijana                 . 
.                         .
.Dubrovački Trubaduri     .
.                         .
.4.9.2006                 .
.                         .
.                         .
...........................


 A
-------------------------------------------------------------------
--5------5----------5-5-7-7---5--4---5------2----------5-5-7-7-5-4-
--6------6----------6-6-7-7---6--5---6------2----------6-6-7-7-6-5-
-------------------------------------------------------------------
--0-------------0--------------------0-------------0-------0-------
-------------------------------------------------------------------


 E                              A                 D
-----------------------------------------------  -------------------
--3------3----------3-5-7-5-3---2---2---3---5-- .-7------7----------
--4------4----------4-6-7-6-4---2---2---4---6--  -7------7----------
-----------------------------------------------  -0-----------------
--------------------------------0-------0------ .-------------------
--0------0------0---------0--------------------  -------------------


                    A                             E
---------------------------5---------------------------------------
------9-7-9-7-9-7---5------5----------5---7---5---9---9-9----------
------9-7-9-7-9-7---6------6----------6---7---6---9---9-9----------
--0----------------------------------------------------------------
--------------------0------0------0--------------------------------
--------------------------------------------------0-----0----------
                              A             A

                              1.            2.   
                       I-------------I   I-----I
--------------------------------------- ---------
------7---5---3--------2---2---3---5--- --2------
------7---6---4--------2---2---4---6--- --2------
--------------------------------------- ---------
-----------------------0--------------- --0------
--0------------------------------------ ---------


Made by:*kItArIsT*

trzalica bartrzalica bar

Template Design © Joomla Templates | GavickPro. All rights reserved.