tablatura akordi besedilo   In ko enkrat bom umrl (tab)

trzalica.com besedilo akordi tablature

Legenda ikon:


Pogoji uporabe.    

besedilo z akordi besedilo z akordi
tablature tablatura (tabulatura)
tablature tablatura za bas
tablature videolekcija

GuitarPro GutarPro (GP)
note Note (v PDF formatu)
sibelius Sibelius (SIB), itd.
..

 ___________________________________________________________
|  _______________________________________________________  |
| |                                                       | |
| | IZVAJALEC: .............. Magnifico                   | |
| | PESEM: .................. In ko enkrat bom umrl       | |
| | ALBUM: .................. Magnifico Komplet           | |
| | LETO IZIDA: ............. 2001                        | |
| | SPLETNA STRAN: .......... www.magnifico.info          | |
| |_______________________________________________________| |
| |                                                       | |
| |  Transkripcija: pirih /posodobil AliAs, oktober 2015  | |
| |                                                       | |
| |            w w w . t r z a l i c a . c o m            | |
| |_______________________________________________________| |
|___________________________________________________________|
 
===========================================================================================================
www.trzalica.com     www.trzalica.com     www.trzalica.com     www.trzalica.com     www.trzalica.com
===========================================================================================================
 
Uvod in refren:
e|-7-7-7-4-4-------5------7-------------------------7-7-7-4-4-------5----------------7---5--7--|-12---|
H|-9-9-7-5-0------------------9-9-9-9-9-9-10---7----9-9-7-5-0--------------7-----5-------5--7--|-12---|
G|-------------1/6----6/8-----7-9-9-7-9-7-6----8----------------1/6----------------------6--8--|-13---|
D|---------------------------------------------------------------------6/9-----6---------------|------|
A|---------------------------------------------------------------------------------------------|------|
E|---------------------------------------------------------------------------------------------|------|
 
        E
        I love you baby, baby,
        A             H         E      A  H    
        je muzika iz radia šibala,
        E
        tam nekje v vesolju
                   A     H         E       A  H
        sva se v njenem ritmu zibala.
                                                                                             Trzalica.COM
        E
        V nebesih se je vnel prepir,
        A         H          E     A  H
        ko sva kalila nočni mir.
        E
        Odkrival sem svet neznan,
        A               H           E     
        vsak poljub je zame bil vulkan.
 
        A     H            E
        In ko enkrat bom umrl
        A          H       E
        in ti boš daleč proč
        A     H        E
        ne mi sveč prižigat
        A          H          E
        spomni se na božično noč.
                                                                                             Trzalica.COM
        Aleluja baby, baby,
        telo in dušo sem ti dal
        hvaležna si bila, ko 
        Satana iz tebe ven sem gnal.
 
        Iz lic sem ti solze pil
        neusmiljen jezdec
        to noč sem bil.
        Boga prosila bova za pomoč, dekle
        grešila sva na sveto noč.
 
        In ko enkrat...
 
                                                                                             Trzalica.COM
Solo: (progresija akordov F#  H  C#)
e|-14-|-14-14-14-----9---11--13--13/11--9---6--------------------------|
H|-11-|-11-11-11----------------------------7----7--9--9/11-9--7--7/11-|
G|----|--------------10--11--13--13/11--10-----------------------------|  2x
D|----|------------------------------------------8--9--9/11-9--8-------|
A|----|----------------------------------------------------------------|
E|----|----------------------------------------------------------------|
 
e|-14-14-14----14--14------13-----11-----9--------------------------|
H|-11-11-11----12--12----14-----12-----11-----7--9--9/11-9--7--7/11-|
G|---------------------15-----13-----11-----------------------------|
D|--------------------------------------------8--9--9/11-9--8-------|
A|------------------------------------------------------------------|
E|------------------------------------------------------------------|
                                                                                             Trzalica.COM
e|-14-14-14----7--7------6---4---2--4--2--|
H|-11-11-11----4--4---------6---2---------|
G|-------------------4/6---6---3----------|
D|----------------------------------------|
A|----------------------------------------|
E|----------------------------------------|
 

trzalica bar

trzalica bar

Dodaj komentar


Varnostna koda
Osveži

  Iskanje

config

      Zadnji komentarji