videolekcija  Vlado Kreslin - Z Goričkega v Piran

trzalica.com besedilo akordi tablature

Legenda ikon:


Pogoji uporabe.    

besedilo z akordi besedilo z akordi
tablature tablatura (tabulatura)
tablature tablatura za bas
tablature videolekcija

GuitarPro GutarPro (GP)
note Note (v PDF formatu)
sibelius Sibelius (SIB), itd.
..

Oglej si še:

  Vlado Kreslin
  Eksibicionisti na forumu
besedilo z akordi  Z Goričkega v Piran
tablatura akordi besedilo  Z Goričkega v Piran (tab)

trzalica bar

Intro:
e|-9-7--------------------------------------------|
B|------9----7---------9-7---------7-10-9--7------|
       G|-------------9--6---------9--6-9-----------9----|  -- 2x
D|------------------------------------------------|
A|------------------------------------------------|
E|------------------------------------------------|

Solo:
e|-4---4---4-2-2-----------------------------2--4-----5---4-2------|
H|-0-0---0-------4-----4---4-2-2-5-----5---5------------------5----|
G|-4-----------------4---4-----------2---2----------2---2----------|
D|-----------------------------------------------------------------|
A|-----------------------------------------------------------------|
E|-----------------------------------------------------------------|

e|-4---4---4-2-2-----------------------------2--4-----5---4-2------|
H|---0---0-------4-----4---4-2-2-5-----5---5------------------5----|
G|-------------------4---4-----------2---2----------2---2----------|
D|-----------------------------------------------------------------|
A|-----------------------------------------------------------------|
E|-----------------------------------------------------------------|




ali

ali


trzalica bar

Dodaj komentar


Varnostna koda
Osveži