videolekcija  Siddharta - Na soncu

 

trzalica.com besedilo akordi tablature

Legenda ikon:


Pogoji uporabe.    

besedilo z akordi besedilo z akordi
tablature tablatura (tabulatura)
tablature tablatura za bas
tablature videolekcija

GuitarPro GutarPro (GP)
note Note (v PDF formatu)
sibelius Sibelius (SIB), itd.
..

Oglej si še:

  Siddharta
tablatura akordi besedilo  Na soncu (tab)
besedilo  Na soncu (bas)

trzalica bar

e|----------------------|  e|--------------------------|
H|----------------------|  B|--------------------------|
G|----------------------|  G|--------------9--7--6--4--|
D|-------2------2--2----|  D|-------2------------------|
A|-----4-2------2--2----|  A|-----4-2------7--5--4--2--|
E|-0-2---0------0--0----|  E|-0-2---0------------------|
 
e|--------------------------|--------------------------|--------------------------------------------|
H|----------7---------------|----------10-7------------|----------12-9------------------------------|
G|-4--4--44---7---4--4--2/4-|-7--7--77-------7--7--6/7-|-9--9--99------9--9--7/9-11--11/12\11--9/11~|
D|--------------------------|--------------------------|--------------------------------------------|
A|--------------------------|--------------------------|--------------------------------------------|
E|--------------------------|--------------------------|--------------------------------------------|

e|-----------------------------------------------------------------|
H|-----------------------------------------------------------------|
G|-----------------------------------------------------------------|
D|-----4-4-7-7-4-4---------------------3-3-6-6-3-3-----------------|
A|-5-5-----------------4-4-7-7-4-4-4-4-----------------0-0-2-2-4-4-|
E|-----------------5-5-----------------------------2-2-------------|
 








trzalica bar

Dodaj komentar