videolekcija  Nina Pušlar - Pozdrav z ljubeznijo

trzalica.com besedilo akordi tablature

Legenda ikon:


Pogoji uporabe.    

besedilo z akordi besedilo z akordi
tablature tablatura (tabulatura)
tablature tablatura za bas
tablature videolekcija

GuitarPro GutarPro (GP)
note Note (v PDF formatu)
sibelius Sibelius (SIB), itd.
..

Oglej si še:

  Nina Pušlar
besedilo z akordi  Pozdrav z ljubeznijo

trzalica bar

1e|-11-----13--15--13--------15--13-------11-----13--15--11--------15--13--|
2H|---11-11--11--11--11-11-11--11--11-11----11-11--11--11--11-11-11--11----|
3G|------------------------------------------------------------------------|
4D|------------------------------------------------------------------------|
5A|------------------------------------------------------------------------|
6E|------------------------------------------------------------------------|

1e|--11-----13--15--13--------15--13------11-----13--15--11--------13--11--|
2H|----11-11--11--11--11-11-11--11--11-11---11-11--11--11--11-11-11--11----|
3G|------------------------------------------------------------------------|
4D|------------------------------------------------------------------------|
5A|------------------------------------------------------------------------|
6E|------------------------------------------------------------------------|






trzalica bar






trzalica bar

Dodaj komentar


Varnostna koda
Osveži