videolekcija  Jan Plestenjak - Soba 102

trzalica.com besedilo akordi tablature

Legenda ikon:


Pogoji uporabe.    

besedilo z akordi besedilo z akordi
tablature tablatura (tabulatura)
tablature tablatura za bas
tablature videolekcija

GuitarPro GutarPro (GP)
note Note (v PDF formatu)
sibelius Sibelius (SIB), itd.
..

Oglej si še:

  Jan Plestenjak
  Dobre vile na forumu
besedilo z akordi  Soba 102

trzalica bar

Solo:

1e|---------------------------------------------------------------------
2H|---------------------------------------------------------------------
3G|---------------------------------------------------------------------
4D|---------------------------------------------------------------------
5A|--2-2-2-2-2-2-2h5-2-2-2-2-2-2-2-2--7-7-7-7-7-7-7h10-7-7-7-7-7-7-7-7--
6E|---------------------------------------------------------------------

1e|---------------------------------------------------------------------
2H|---------------------------------------------------------------------
3G|---------------------------------------------------------------------
4D|---------------------------------------------------------------------
5A|-2-2-2-2-2-2-2h5-2-2-2-2-2-2-2-2--2-2-2-2-2-2-2h5--2-2-2-2-2-2-2-2---
6E|---------------------------------------------------------------------

1e|---------------------------------------------------------------------
2H|---------------------------------------------------------------------
3G|---------------------------------------------------------------------
4D|---------------------------------------------------------------------
5A|--2-2-2-2-2-2-2h5--2-2-2-2-2-2-2-2--7-7-7-7-7-7-7h10-7-7-7-7-7-7-7-7-
6E|---------------------------------------------------------------------

1e|---------------------------------------------------------------------
2H|---------------------------------------------------------------------
3G|---------------------------------------------------------------------
4D|---------------------------------------------------------------------
5A|-9-9-9-9-9-9-9h12-9-9-9-9-9-9-9-9------------------------------------
6E|-----------------------------------2-2-2-2-2-2-2h5--2-2-2-2-2-2-2-2--








trzalica bar

Dodaj komentar


Varnostna koda
Osveži