videolekcija  Flirrt - Romeo in Julija

trzalica.com besedilo akordi tablature

Legenda ikon:


Pogoji uporabe.    

besedilo z akordi besedilo z akordi
tablature tablatura (tabulatura)
tablature tablatura za bas
tablature videolekcija

GuitarPro GutarPro (GP)
note Note (v PDF formatu)
sibelius Sibelius (SIB), itd.
..

Oglej si še:

  Flirrt (Flirt)
tablatura akordi besedilo  Romeo in Julija (tab)
  Romeo in Julija - brenkanje (gp)
  Romeo in Julija - vložek (gp)

trzalica bar

SOLO KITARA V KITICI
1e|------------------------------------------------------------------|
2H|------------------------------------------------------------------|
3G|---12---12-------12---12-------12---12----12s14------14-14-12-----|
4D|-10---10---10--12---12---12--10---10---10------12-12----------12--|
5A|------------------------------------------------------------------|
6E|------------------------------------------------------------------|

1e|----------------------------------------------------|
2H|----------------------------------------------------|
3G|------12---12------12---12--------12----12--12b--12-|
4D|----10---10---10-12---12---12--10----10-------------|
5A|----------------------------------------------------|
6E|----------------------------------------------------|


SOLO VLOŽEK MED REFRENOM (dve verziji)
1e|-------------------- -----------------
2H|---8---6---5h6------ -----------------
3G|-5---5---5---------- -----------------
4D|-------------------- ----5---3---2h3--
5A|-------------------- --3---3---3------
6E|-------------------- -----------------

SOLO
1e|-------------------------------------------------------------------------------------|
2H|---------------------------8---6---5h6-----------------------------------------------|
3G|-----------b7r-p5---b7---5---5---5--------------------------12----12----10---b12-r12-|
4D|-3--5s7--5-----------------------------7--7s10-9--10--12s14----14--------------------|
5A|-------------------------------------------------------------------------------------|
6E|-------------------------------------------------------------------------------------|


1e|--------------------15----13----12h13--------13---------------------|
2H|-b15r-p13--b15---13----13----13-------13---13--13--15---15-----b20--|
3G|--------------------------------------------------------------------|
4D|--------------------------------------------------------------------|
5A|--------------------------------------------------------------------|
6E|--------------------------------------------------------------------|





trzalica bar

Dodaj komentar