videolekcija  Siddharta - Ledena

trzalica.com besedilo akordi tablature

Legenda ikon:


Pogoji uporabe.    

besedilo z akordi besedilo z akordi
tablature tablatura (tabulatura)
tablature tablatura za bas
tablature videolekcija

GuitarPro GutarPro (GP)
note Note (v PDF formatu)
sibelius Sibelius (SIB), itd.
..

Oglej si še:

  Siddharta
tablatura akordi besedilo  Ledena (tab)

trzalica bar

e|---0----0----0--------0----0----0--------0----0----0------0---|
H|--------------------------------------------------------------|
G|-2----2----2--------2----2----2--------2----2----2------2-----|
D|--------------------------------------------------------------|
A|--------------------------------------------------------------|
E|--------------------------------------------------------------|

e|--------------------------------------------------------------|
H|---5----5----5--------5----5----5--------5----5----5------5---|
G|-2----2----2--------2----2----2--------2----2----2------2-----|
D|--------------------------------------------------------------|
A|--------------------------------------------------------------|
E|--------------------------------------------------------------|

e|--------------------------------------------------------------|
H|--------------------------------------------------------------|
G|---9----9----9--------9----9----9--------9----9----9------9---|
D|-7----7----7--------7----7----7--------7----7----7------7-----|
A|--------------------------------------------------------------|
E|--------------------------------------------------------------|









trzalica bar

Dodaj komentar