videolekcija  Čuki - Zobar

trzalica.com besedilo akordi tablature

Legenda ikon:


Pogoji uporabe.    

besedilo z akordi besedilo z akordi
tablature tablatura (tabulatura)
tablature tablatura za bas
tablature videolekcija

GuitarPro GutarPro (GP)
note Note (v PDF formatu)
sibelius Sibelius (SIB), itd.
..

Oglej si še:

  Čuki
besedilo z akordi  Zobar

trzalica bar



       C     C     C           F     F     F             C     C           G                 
1e|-----0--x--0--x--0-----------1--x--1--x--1-------------0--x--0---------------3-------------|
2H|-----1--x--1--x--1-----------1--x--1--x--1-------------1--x--1-------------3---------------|
3G|-----0--x--0--x--0-----------2--x--2--x--2-------------0--x--0----0------0-----------------|
4D|-----2--x--2--x--2--0--2-----3--x--3--x--3--2--3-------2--x--2--2---2----------------------|
5A|--3--3--x--3--x--3-----------3--x--3--x--3---------3---3--x--3---------------------0-2-----|
6E|-----x--x--x--x--x--------1--1--x--1--x--1-------------x--x--x---------3---------3---------|

       C     C     C           F     F     F             C     G  G  G      C                
1e|-----0--x--0--x--0-----------1--x--1--x--1-------------0--x--3--3--3------0----------------|
2H|-----1--x--1--x--1-----------1--x--1--x--1-------------1--x--3--3--3------1----------------|
3G|-----0--x--0--x--0-----------2--x--2--x--2-------------0--x--0--0--0------0----------------|
4D|-----2--x--2--x--2--0--2-----3--x--3--x--3--2--3-------2--x--0--0--0------2----------------|
5A|--3--3--x--3--x--3-----------3--x--3--x--3---------3---3--x--2--2--2------3----------------|
6E|-----x--x--x--x--x--------1--1--x--1--x--1-------------x--x--3--3--3--3---x----------------|




trzalica bar

Dodaj komentar


Varnostna koda
Osveži