Kje imaš kitaro in trzalico? Besedilo in akordi so spodaj :-)

[[ DISCLAIMER ]]

 _______________________________________
|                                       |
| IZVAJALEC: .................... Bohem |
| PESEM: ......................... Boem |
| ALBUM: .......... Življenje ni zločin |
|_______________________________________|
|                                       |
|   Besedilo z akordi in tabulatura     |
|   Transkripcija: Aleš Godec (AliAs)   |
|   Domača stran: www.trzalica.com      |
|_______________________________________|

LEGENDA ZNAKOV:

M = MUTE - zaduši strune
× = palm muted - narahlo zaduši strune
X = Z levo roko zaduši strune
...= nadaljevanje
p = pul off
\ = slide down
¤ = harmonični ton
~ = let ring - strune pusti zveneti

INTRO:

e|--------------------------------------------------------------------------------------------------------------------|
B|--------------------------------------------------------------------------------------------------------------------|
G|--------------------------------------------------------------------------------------------------------------------|
D|--------------------------------------------------------------------------------------------------------------------|
A|--------------------------------------------------------------------------------------------------------------------|
E|-0-0-0-0---------0-0-0-5-5-5-5-3--5--3--5-\----5--5-\----5--3-\----3--3-\----3--1-p0---1--3-\----3--5-\----5--5-\---|
          .........      ¤ ¤ ¤ ¤              M   M      M  M      M  M      M  M      M  M      M  M      M  M      M

Am
Mi potujoča smo karavana
               G                       F
od ljubezni bolana, od pijače zaspana,
                  G
pamet objela nam vinska je moč,
    Am
prijatle vzela nam pozna je noč...

   Am       G        F    G    Am
e|-------------------------------------------------|
B|-------------------------------------------------|
G|-------------------------------------------------|
D|-7--------5--------3----5----7-7--7-7--7-7--7-7--|
A|-7--------5--------3----5----7-7--7-7--7-7--7-7--|
E|-5--------3--------1----3----5-5--5-5--5-5--5-5--|
    ~~~~~~~~ ~~~~~~~~ ~~~~ ~~~~   M    M    M    M

Am
Smo kot pravi boemi
           G                     F
v samoti srečni, v sanjah večni.
                       G
Plima – oseka sta kot čustva človeka,
        Am               C       Am
kakor pravi poet: to je večni sonet...

   Am                  G                   F         G         Am        C    Am
e|----------------------------------------------------------------------------------------|
B|----------------------------------------------------------------------------------------|
G|-----------------------------------------------------------------------5-5--------------|
D|-7-7--7-7--7-7--7-7--5-5--5-5--5-5--5-5--3-3--3-3--5-5--5-5--7-7--7-7--5-5--7-7---7--7--|
A|-7-7--7-7--7-7--7-7--5-5--5-5--5-5--5-5--3-3--3-3--5-5--5-5--7-7--7-7--3-3--7-7---7--7--|
E|-5-5--5-5--5-5--5-5--3-3--3-3--3-3--3-3--1-1--1-1--3-3--3-3--5-5--5-5-------5-5---5--5--|
      M    M    M    M    M    M    M    M    M    M    M    M    M    M    M    M      M

REFREN: (power akordi - za ritem udarjanja po akordih poslušaj pesem)

        F  G           C
Nikoli neeee verjemi vsem ljudem
         F  G        C
prihaja sonce za dežjem
        F  G          C
Vrnimo sanje pozabljenim nočem
          F  G           Am   G  F   G
kjerkoli boooš, ostani boeeeeeeeeeem

VERZ:

        Am
Od mesečine obsijan je obraz,
                  G                     F
ki splahnel bo v soncu, soncu svobode.
                 G
Vedno goreče je zadnje slovo,
Am
radost, srečo, zamenjal je bol...

   Am                  G                   F         G         Am
e|---------------------------------------------------------------------------------|
B|---------------------------------------------------------------------------------|
G|---------------------------------------------------------------------------------|
D|-7-7--7-7--7-7--7-7--5-5--5-5--5-5--5-5--3-3--3-3--5-5--5-5--7-7--7-7--7-7--7-7--|
A|-7-7--7-7--7-7--7-7--5-5--5-5--5-5--5-5--3-3--3-3--5-5--5-5--7-7--7-7--7-7--7-7--|
E|-5-5--5-5--5-5--5-5--3-3--3-3--3-3--3-3--1-1--1-1--3-3--3-3--5-5--5-5--5-5--5-5--|
      M    M    M    M    M    M    M    M    M    M    M    M    M    M    M    M

Am
Smo kot pravi boemi
           G                      F
v samoti srečni, v sanjah večni.
                     G
Moški in ženska sta vedno le eno,
   Am              C          Am
človek je boj – pozabljeni stroj...

   Am                  G                   F         G         Am        C    Am
e|----------------------------------------------------------------------------------------|
B|----------------------------------------------------------------------------------------|
G|-----------------------------------------------------------------------5-5--------------|
D|-7-7--7-7--7-7--7-7--5-5--5-5--5-5--5-5--3-3--3-3--5-5--5-5--7-7--7-7--5-5--7-7---7--7--|
A|-7-7--7-7--7-7--7-7--5-5--5-5--5-5--5-5--3-3--3-3--5-5--5-5--7-7--7-7--3-3--7-7---7--7--|
E|-5-5--5-5--5-5--5-5--3-3--3-3--3-3--3-3--1-1--1-1--3-3--3-3--5-5--5-5-------5-5---5--5--|
      M    M    M    M    M    M    M    M    M    M    M    M    M    M    M    M      M

REFREN: (power akordi - za ritem udarjanja po akordih poslušaj pesem)

        F  G           C
Nikoli neeee verjemi vsem ljudem
         F  G        C
prihaja sonce za dežjem
        F  G          C
Vrnimo sanje pozabljenim nočem
          F  G           Am   G  F   G
kjerkoli boooš, ostani boeeeeeeeeeem

SOLO: (z wah efektom)

   F        G        A A G A A G A G A A G A A G A G F        G        F               G               Am
e|---------------------------------------------------------------------X-X-X-X-X-X-X-X-X-X-X-X-X-X-X-X-----------------------------------|
B|---------------------------------------------------------------------X-X-X-X-X-X-X-X-X-X-X-X-X-X-X-X-----------------------------------|
G|---------------------------------------------------------------------X-X-X-X-X-X-X-X-X-X-X-X-X-X-X-X-----------------------------------|
D|-3--------5--------7-7-5-7-7-5-7-5-7-7-5-7-7-5-7-5-3--------5--------X-X-X-X-X-X-X-X-X-X-X-X-X-X-X-X-7-7-7-7-7-7-7-7-7-7-7-7-7-7-7-7-7-|
A|---------------------------------------------------------------------X-X-X-X-X-X-X-X-X-X-X-X-X-X-X-X-7-7-7-7-7-7-7-7-7-7-7-7-7-7-7-7-7-|
E|---------------------------------------------------------------------X-X-X-X-X-X-X-X-X-X-X-X-X-X-X-X-5-5-5-5-5-5-5-5-5-5-5-5-5-5-5-5-5-|

PREHOD:

Nikoli
        F  G           C
Nikoli ne    verjemi vsem ljudem
         F  G        C
prihaja sonce za dežjem

   F               G               C
e|-------------------------------------------------|
B|-------------------------------------------------|
G|-------------------------------------------------|
D|---------------------------------5-5-5-5-5-5-5-5-|
A|-3-3-3-3-3-3-3-3-5-5-5-5-5-5-5-5-3-3-3-3-3-3-3-3-|
E|-1-1-1-1-1-1-1-1-3-3-3-3-3-3-3-3-----------------|
   × × × × × × × × × × × × × × × × × × × × × × × ×

   F               G               C
e|-----------------------------------------------------|
B|-----------------------------------------------------|
G|---------------------------------------5--4---5--4---|
D|---------------------------------5-5-5-5--5---5--5---|
A|-3-3-3-3-3-3-3-3-5-5-5-5-5-5-5-5-3-3-3---------------|
E|-1-1-1-1-1-1-1-1-3-3-3-3-3-3-3-3---------------------|
   × × × × × × × × × × × × × × × × × × ×      M      M

REFREN: (power akordi - za ritem udarjanja po akordih poslušaj pesem)

        F  G           C
Nikoli neeee verjemi vsem ljudem
         F  G        C
prihaja sonce za dežjem
        F  G          C
Vrnimo sanje pozabljenim nočem
          F  G           Am
kjerkoli boooš, ostani boeeeeeeeeeem
        F  G          C
Vrnimo sanje pozabljenim nočem
          F  G           Am   G  F   G
kjerkoli boooš, ostani boeeeeeeeeeem
         Am G Am
ostani boeeeeeem

 

trzalica posnetek bar

trzalica bar

Pesem je naložil

AliAs

Deli z drugimi

Vaš e-naslov ne bo objavljen. * označuje zahtevana polja