Kje imaš kitaro in trzalico? Besedilo in akordi so spodaj :-)

[[ DISCLAIMER ]]

   ___________________________________________________________
  |  _______________________________________________________  |
  | |                                                       | |
  | | IZVAJALEC: .............. Tide                        | |
  | | PESEM: .................. Evolution                   | |
  | | ALBUM: .................. Seven days                  | |
  | | LETO IZIDA: ............. 2005                        | |
  | | DOMAČA STRAN: ........... www.tide-band.com           | |
  | |_______________________________________________________| |
  | |                                                       | |
  | |   Avtor transkripcije: AliAs                          | |
  | |   Domača stran transkripcije: www.trzalica.com        | |
  | |   Datum nastanka transkripcije: 28.6.2008             | |
  | |_______________________________________________________| |
  |___________________________________________________________|

================================================================================================

LEGENDA ZNAKOV:
M = MUTE
× = palm muted
X = Muffled
~ = let ring
. = hitro ubiranje

================================================================================================
www.trzalica.com    www.trzalica.com    www.trzalica.com    www.trzalica.com    www.trzalica.com
================================================================================================

INTRO:
                                                      7x
e|-----------------------------------|----------------------------------|
B|-----------------------------------|----------------------------------|
G|-----------------------------------|----------------------------------|
D|-----9-9-----9-9-----9-9-7-7-------|---9-9-----9-9-----9-9-7-7--------|
A|-----7-7-----7-7-----7-7-5-5-------|---7-7-----7-7-----7-7-5-5--------|
E|-0-0-0-0-0-0-0-0-0-0-0-0-----3-0---|-0-0-0-0-0-0-0-0-0-0-0-----3-0----|

VERZ:

Someone said it's a fucked up world
Mama told me to rock n' roll
Revolution is a worn out song
Love and peace a game for clowns

                3x
e|---------------------------------|-----------------------------|
B|---------------------------------|-----------------------------|
G|---------------------------------|-----------------------------|
D|---------------------7-7-7-7-9-9-|---------------------9-9-9-9-|
A|---------------------5-5-5-5-7-7-|---------------------7-7-7-7-|
E|-0-0-0-0-0-0-0-0-0-0-------------|-0-0-0-0-0-0-0-0-0-0-0-0-0-0-|
   ×××××××××××××××××××               ×××××××××××××××××

Let's wait…evolution

e|---------------------------------------------------------------------------------------|
B|---------------------------------------------------------------------------------------|
G|---------------------------------------------------------------------------------------|
D|-7--------7------------9-9-----9-9-----9-9-7-7----------9-9-----9-9-----9-9-7-7--------|
A|-5--------4------------7-7-----7-7-----7-7-5-5----------7-7-----7-7-----7-7-5-5--------|
E|-------------------0-0-0-0-0-0-0-0-0-0-0-0-----3-0----0-0-0-0-0-0-0-0-0-0-0-----3-0----|

Tell me Jesus
Tell me should I bleed
While freedom turns to greed
Tell me brother
Tell me why you cry
No one cares if you live or die

                3x
e|---------------------------------|-----------------------------|
B|---------------------------------|-----------------------------|
G|---------------------------------|-----------------------------|
D|---------------------7-7-7-7-9-9-|---------------------9-9-9-9-|
A|---------------------5-5-5-5-7-7-|---------------------7-7-7-7-|
E|-0-0-0-0-0-0-0-0-0-0-------------|-0-0-0-0-0-0-0-0-0-0-0-0-0-0-|
   ×××××××××××××××××××               ×××××××××××××××××

Let's wait…evolution

e|------------------------------|
B|------------------------------|
G|------------------------------|
D|-7--------7--------2----------|
A|-5--------4--------2----------|
E|-------------------0----------|

REFREN:

Prijemi power akordov:
   C5  A5  E5  D5
e|-----------------|
B|-----------------|
G|-5-------9---7---|
D|-5---7---9---7---|
A|-3---7---7---5---|
E|-----5---0-------|

     C5              A5
The sky is cracking
 E5        D5     C5
There's a ray of light
           A5       E5     D5
Shining through evolution 
     C5              A5
The sky is cracking
 E5        D5     C5
There's a ray of light
           A5       E5
Shining through evolution 

Po refrenu:
e|---------------------------------------------------------------|
B|---------------------------------------------------------------|
G|---------------------------------------------------------------|
D|-----9-9-----9-9-----9-9-7-7----------9-9-----9-9-----9-9-7-7--|
A|-----7-7-----7-7-----7-7-5-5----------7-7-----7-7-----7-7-5-5--|
E|-0-0-0-0-0-0-0-0-0-0-0-0-----3-0----0-0-0-0-0-0-0-0-0-0-0------|

e|-X------------------------------------------------------------------X-----|
B|-X-9-9---12-12-12---9-9-9---14-14-14---9-9-9---12-12-12---14---12---X-9---|
G|-X-9-9---12-12-12---9-9-9---14-14-14---9-9-9---12-12-12---14---12---X-9---|
D|-X-9-9---12-12-12---9-9-9---14-14-14---9-9-9---12-12-12---14---12---X-9---|
A|-X------------------------------------------------------------------X-----|
E|-X------------------------------------------------------------------X-----|

e|---------------------------------------------|
B|---------------------------------------------|
G|-9.8.7.6.7.6.5.4.5.4.3.4.5.6.7.8.9-----------|
D|---------------------------------------------|
A|-7.6.5.4.5.4.3.2.3.2.1.2.3.4.5.6.7-----------|
E|---------------------------------------------|

e|--------------------------------------|
B|--------------------------------------|
G|-9--9--10-10-11.12.13.14.15.16.17.19--|
D|--------------------------------------|
A|-7--7--8--8--9..10.11.12.13.14.15.17--|
E|--------------------------------------|

VERZ:

Tell me Jesus
Tell me should I bleed
While freedom turns to greed
Tell me brother
Tell me why you cry
No one cares if you live or die

e|-----------------|
B|-----------------|
G|-----------------|  3x
D|-----7-7-7-7-9-9-|
A|-----5-5-5-5-7-7-|
E|-----------------|

REFREN:

     C5              A5
The sky is cracking
 E5        D5     C5
There's a ray of light
           A5       E5     D5
Shining through evolution 
     C5              A5
The sky is cracking
 E5        D5     C5
There's a ray of light
           A5       E5     D5
Shining through evolution
     C5              A5
The sky is cracking
 E5        D5     C5
There's a ray of light
           A5       E5
Shining through evolution
evolution, evolution, evolution

Zaključek:                                            3x
e|-----------------------------------|----------------------------------|------------|
B|-----------------------------------|----------------------------------|------------|
G|-----------------------------------|----------------------------------|------------|
D|-----9-9-----9-9-----9-9-7-7-------|---9-9-----9-9-----9-9-7-7--------|-2----------|
A|-----7-7-----7-7-----7-7-5-5-------|---7-7-----7-7-----7-7-5-5--------|-2----------|
E|-0-0-0-0-0-0-0-0-0-0-0-0-----3-0---|-0-0-0-0-0-0-0-0-0-0-0-----3-0----|-0----------|

#==============================================================================#
#                                                                              #
#                    w w w . t r z a l i c a . c o m                           #
#               K j e r   i m a m o   r a d i   g l a s b o                    #
#                                                                              #
#==============================================================================#
================================================================================================
www.trzalica.com    www.trzalica.com    www.trzalica.com    www.trzalica.com    www.trzalica.com
================================================================================================
trzalica bartrzalica bar

Pesem je naložil

AliAs

Deli z drugimi

Vaš e-naslov ne bo objavljen. * označuje zahtevana polja