Kje imaš kitaro in trzalico? Besedilo in akordi so spodaj :-)

[[ DISCLAIMER ]]

Izvajalec: ................... Mi2
Skladba: ..................... Hči vaškega učitelja
Leto izida: .................. 2013  
Transkripcijo izdelala ....... Roby & AliAs
Domača stran transkripcije ... www.trzalica.com
===================================================
   Hm    - 7 9 9 7 7 7
   Esus2 - X 7 9 9 7 7
Tablature za kitico:
  tab1                tab2                tab3                  tab4
e|-2-2---------------|-------------------|---------------------|-------------------|
H|-----2-2-3-3-------|-------------------|---------3-----------|-------------------|
G|-------------2-4---|-------------------|-----2-4---4-2---4---|-------------------|
D|-------------------|-2-2-0-0-----------|-2/4-----------4-----|-2-2-0-0-----------|
A|-------------------|---------4-4-2-2---|---------------------|---------2-2-0-2---|
E|-------------------|-------------------|---------------------|-------------------|
  tab5                tab6             tab7
e|-------------------|----------------|-------------------|
H|-------------------|-5b-------------|-------------------|
G|-----2-2-4-4-------|----------------|-------------------|
D|-4-4---------2/4---|----------------|-2-2-0-0-----------|
A|-------------------|----------------|---------4-4-0-2---|
E|-------------------|----------------|-------------------|
============================================================================================================
www.trzalica.com       www.trzalica.com       www.trzalica.com       www.trzalica.com       www.trzalica.com
============================================================================================================
Kitica:
                                           tab1, tab2
  Hm                         Esus2
    Enkrat letno ponavadi,
    ko zima umakne se pomladi,             tab1
    na tisti prav poseben dan,
    mahnem jo čez gozd teman.              tab3
  Hm                         Esus2
    Na jasi skriti postojim,               tab1
    v tišini gluhi obmolčim,               tab4
    skozi krošnje zrem v nebo              tab5
    in pod sabo čutim njo.                 tab1
                                                                                             Trzalica.COM
Refren:
                                                  e|------------------|
                                                  H|------------------|
             G   A        D*      ------->        G|-7--9--7--6--7----|
    Bila je hči vaškega učitelja,                 D|------------------|
            G  A            D*    ------->        A|-5--7--5--4--5----|
    njene oči kot mehkoba travnika.               E|------------------|
              Hm             D          
    V njem bi se izgubljal spet in spet.
Kitica:
                                                                                             Trzalica.COM
  Hm                         Esus2
    Sedem k njej na rosna tla.             tab6
    Poljubim in položim dlan.
    Nežno ji zašepetam,                    tab6
    kako močno jo rad imam.                tab1
  Hm                         Esus2
    Da nikdar je ne izdam,                 tab7
    da se prav nič ne kesam                tab5
    in da vedno moja bo,                   tab1
    saj drugače pač ni šlo.                tab1
Refren:
                                                                                             Trzalica.COM
             G   A        D*
    Bila je hči vaškega učitelja,
            G  A            D*
    njene oči kot mehkoba travnika.
              Hm             D
    V njem bi se izgubljal spet in spet.
              G                      Em
    V njem bi se izgubljal spet in spet.
Solo:
Hm, Esus2
                                                                                             Trzalica.COM
e|-7-9-9/10--9--7/9\7---|---------------------------------------------------|
H|-7-9-9/10--9--7/9\7---|----5-7-8-7-5---10----9----8-----7-6---------------|
G|----------------------|-7b-----------7-----7----7-----7-----7-------------|
D|----------------------|---------------------------------------9-7-9-v-----|
A|----------------------|---------------------------------------------------|
E|----------------------|---------------------------------------------------|
Kitica:
  Hm                         Esus2
    Naredim šopek ji iz vej,               tab1
    a ker življenje gre naprej,            tab5
    pihnem svečo, pogasim,                 tab7
    se počasi poslovim.
                                                                                             Trzalica.COM
  Hm                         Esus2
    Puščam jo naj mirno spi,
    za sabo zbrišem vse sledi,
    srčni mir me vodi vstran,
    nasvidenje na najin dan.
Refren:
    Bila je hči vaškega učitelja,
    njene oči kot mehkoba travnika.                  2X
    V njem bi se izgubljal spet in spet.
                                                                                             Trzalica.COM
    Bila je hči vaškega učitelja,
    njene oči kot gladina jezera.
    Vanj bi se potapljal spet in spet.
    Vanj bi se potapljal spet in spet.
    Spet in spet.

trzalica bar

trzalica bar

Pesem je naložil

Roby

Deli z drugimi

Vaš e-naslov ne bo objavljen. * označuje zahtevana polja