Kje imaš kitaro in trzalico? Besedilo in akordi so spodaj :-)

 

   ___________________________________________________________
  |  _______________________________________________________  |
  | |                                                       | |
  | | IZVAJALEC: .............. Društvo Mrtvih Pesnikov     | |
  | | PESEM: .................. Naftalin                    | |
  | | ALBUM: .................. Vojna in mir                | |
  | | LETO IZIDA: ............. 2008                        | |
  | | DOMAÈA STRAN: ........... www.dmp.si                  | |
  | |_______________________________________________________| |
  | |                                                       | |
  | |   Avtor transkripcije: AliAs                          | |
  | |   Domača stran transkripcije: www.trzalica.com       | |
  | |   Datum nastanka transkripcije: 20.6.2008              | |
  | |_______________________________________________________| |
  |___________________________________________________________|

A. Vitezič / A. Vitezič / DMP

Intro - igraj s prsti!
e|---------------------------------4-4-4-4-4-4-4-4-4-4-4-4-4-4-4-4-|
B|-4-4-4-4-4-4-4-4-4-4-4-4-4-4-4-4---------------------------------|
G|-4-4-4-4-4-4-4-4-3-3-3-3-3-3-3-3-4-4-4-4-4-4-6-4-3-3-3-3-3-3-3-3-|
D|-----------------------------------------------------------------|
A|-----------------------------------------------------------------|
E|-----------------------------------------------------------------|

e|--------------------------------------------------------------------------------------------------------------------------------------|
B|-9-12-12-9-12-9-12-9-11-14-14-11-14-11-14-11-9-12-12-9-12-12-12-9-11-14-14-11-14-14-14-11-12-9-12-9-12-9-12-9-14-11-14-11-14-11-14-11-|
G|-9-9--9--9-9--9-9--9-11-11-11-11-11-11-11-11-9-9--9--9-9--9--9--9-11-11-11-11-11-11-11-11-9--9-9--9-9--9-9--9-11-11-11-11-11-11-11-11-|
D|--------------------------------------------------------------------------------------------------------------------------------------|
A|--------------------------------------------------------------------------------------------------------------------------------------|
E|--------------------------------------------------------------------------------------------------------------------------------------|

e|---------------------------------|
B|-9-9-9-9-9-9-9-9-9-9-9-9-9-9-9-9-|
G|-8-8-8-8-8-8-8-8-8-8-8-8-8-8-8-8-|
D|---------------------------------|
A|---------------------------------|
E|---------------------------------|

Verz:

gis H   gis   H        gis
Ti gledaš z zaprtimi očmi,
gis H     gis  H      gis
ti misliš, kar se naučiš.

e|--------------|
B|--------------|
G|--------------|  se nekajkrat ponovi
D|-6-6---4--4-4-|
A|-6-6----------|
E|-4-4----------|

Refren:

gis         E
Ti ustvarjaš že narejeno,
H         Fis
spreminjaš spremenjeno,
gis   E
sanjaš že storjeno.
H         Dis
Ta svet se ne vrti,

gis       E         H
kot gramofon se praši,
            Dis        gis
potopljeni smo v naftalin,
       E            H   Dis
kloniramo iste stvari.

Verz:
Ti hodiš po označenih poteh,
ti sanjaš črno beli svet.

Refren:
Ti pišeš že prebrano
in zbiraš že izbrano,
pričakuješ pričakovano.

Ta svet se ne vrti,
kot gramofon se praši,
potopljeni smo v naftalin,
kloniramo iste stvari. 

Bridge:
   gis
e|----------------------------------------------------------------------------------------|
B|----------------------------------------------------------------------------------------|
G|----------------------------------------------------------------------------------------|
D|-----6----------------------6--------------------6--------------------6-----------------|
A|-------5--4--------------------5--4--------4-------5--4-----------------5--4---------4--|
E|-4----------4---6--7--3-4-----------7--6-7---4----------7--6--7-3-4----------7--6--7----|

e|---------------------|
B|---------------------|
G|-6--6--4/6--8--------|  2x
D|---------------------|
A|-4--4--2/4--6--------|
E|---------------------|

e|--------------------------------------------------------------|
B|--------------------------------------------------------------|
G|------6--4/6--8-----------------------------------------------|
D|-4-4-----------------9/11-9/11-9/11-9/11-9/13-11-9-8-9-11-9-8-|
A|------4--2/4--6-----------------------------------------------|
E|-2-2-----------------7/9--7/9--7/9--7/9--7/11-9--7-6-7-9--7-6-|

trzalica bartrzalica bar

Pesem je naložil

AliAs

Deli z drugimi

Vaš e-naslov ne bo objavljen. * označuje zahtevana polja