Kje imaš kitaro in trzalico? Besedilo in akordi so spodaj :-)

[[ DISCLAIMER ]]

Besedila in akordi na TrzaliciVse verzije te pesmi:      Patricija (tab)       Patricija (gp)

trzalica bar

 

|-------------------------------------------------------------------| 
|-Avtor tabov:Mihec:-----Mkoros19@volja.net----www.bigfootmama.tk---| 
|-------------------------------------------------------------------| 

Zablujena generacija:PATRICIJA

intro
e--------------------------------b4--
B------------------------------------
G-6---6----6-666666---6---6---6------
D-6-6-6-6--6-xxxxxx---6-6-6-6-6------
A-4-6-4-6--4-444444---4-6-4-6-4------
E---4---4---------------4---4--------

2x

Rekla je, daj zapelji me malo dol do morja

e---------------------------------------------
B---------------------------------------------
G-6------------------------------6------------
D-6-------6----------------------6-----666666-
A-4pm.....6----------------------4pm...xxxxxx-
E---------4pm....................------444444-

Da za?uti vro?ino, da razširi obzorja

riff1
e-x4-x4-x4-x4-x4-x4-44444
B-x5-x5-x5-x5-x5-x5-55555
G-x6-x6-x6-x6-x6-x6-66666
D-x6-x6-x6-x6-x6-x6-66666
A-x4-x4-x4-x4-x4-x4-44444
E-x4-x4-x4-x4-x4-x4------da se nadiha

Da se nadiha zraku, da podre kak nov tabu

e--------------------------
B--------------------------
G-3333333333---------------
D-xxxxxxxxxx-444444444-----
A-1111111111-xxxxxxxxx-----
E------------222222222-----

Rekla je, ho?e užiti nove dimenzije

e-x4-x4-x4-x4-x4-x4-44444
B-x5-x5-x5-x5-x5-x5-55555
G-x6-x6-x6-x6-x6-x6-66666
D-x6-x6-x6-x6-x6-x6-66666
A-x4-x4-x4-x4-x4-x4-44444
E-x4-x4-x4-x4-x4-x4------

Da ne plava vedno le na krilih domišljije

e-x4-x4-x4-x4-x4-x4-44-
B-x5-x5-x5-x5-x5-x5-55-
G-x6-x6-x6-x6-x6-x6-66-
D-x6-x6-x6-x6-x6-x6-66-
A-x4-x4-x4-x4-x4-x4-44-
E-x4-x4-x4-x4-x4-x4----

Ho?e noreti skozi no?, no?e biti ujeta v obro? 

e-1-------------------2------------------------
B-3----strum----------2--------strum-----------
G-3-------------------2------------------------
D-3-------------------4------------------------
A-1...................4........................
E----------------------------------------------

Njen pogled gre skoz ljudi …

e-4-------------------4---------
B-5----strum----------4---------
G-6-------------------5---------
D-6-------------------6---------
A-4...................6.........
E-------------------------------

Bas solo 

cis Gm Fm Gm 
Patricija rada fantazira
cis Gm Fm Gm 
Nikoli se ne upira in ne komplicira
Saj življenje živi
Patricija rada fantazira
Njen pogled gre skoz ljudi
Vse kar ho?e dobi

intro 2x

riff1
Ok, pol pa greva malo dol do morja
Da ob?uti širino in globino vesolja
Da se znori skozi no?, da ne bo ujeta v obro?
Njen pogled gre skoz ljudi …

Patricija rada fantazira
Nikoli se ne upira in ne komplicira
Saj življenje živi
Patricija rada fantazira
Njen pogled gre skoz ljudi
Vse kar ho?e dobi

fafafafafaf....

pm Cis Gm Cis Gm 

solo
e-------------------------------|------------------------------| 
B-b5------5---------------------|------------------------------| 
G----6-----6----5------5--------|------------------------------| 
D------6----6-----6-----6--6----|---------4-b6-4----------4~--| 
A-------------------6----6--6---|---4-6-8----------4-6-8-------| 
E-----------------------------2x|------------------------------| 

Patricija...

cis

intro 1x to end
trzalica bartrzalica bar

 

 

 

Pesem je naložil

Mihy

Deli z drugimi

Vaš e-naslov ne bo objavljen. * označuje zahtevana polja