Kje imaš kitaro in trzalico? Besedilo in akordi so spodaj :-)

[[ DISCLAIMER ]]

 _______________________________________
|                                       |
| IZVAJALEC: ..... Zablujena generacija |
| PESEM: ............ Šivala je deklica |
| ALBUM: ................. Pank zabloda |
|_______________________________________|
|                                       |
|   Besedilo z akordi in tabulatura     |
|   Transkripcija: Aleš Godec (AliAs)   |
|   Domača stran: www.trzalica.com      |
|_______________________________________|

INTRO:
                                                                       en, dva tri, štir...
e|-----------------5--7------------------------------------------5--XXXXXXXX----------------|
B|-----8--8--8--8--------8-----5---------------8--8--8--8--7--8-----XXXXXXXX----------------|
G|-7------------------------------7--------7------------------------XXXXXXXX----------------|
D|----------------------------------------------------------------------------------5-------|
A|----------------------------------------------------------------------------------5-------|
E|----------------------------------------------------------------------------------3-------|

                                                                       |--> 2. kitara = G5 akord
e|---------------------7--8-----------------------------7--8--7-----------------------------------------|
B|-----10--10--10--10--------7----5-------------10--10------------10---8-8-8-8-8-8-8......8--8^-ˇ-------|
G|-7---------------------------------7-------7----------------------------------------------------------|
D|------------------------------------------------------------------------------------------------------|
A|------------------------------------------------------------------------------------------------------|
E|------------------------------------------------------------------------------------------------------|

    e|----------------------------------|
    B|----------------------------------|
    G|----------------------------------|  2. kitara
    D|-5-5-5-5-5-5-5......--------------|
    A|-5-5-5-5-5-5-5......--------------|
    E|-3-3-3-3-3-3-3......--------------|

VERZ 1:

En, dva, tri, štir,... pet

G5

G5
šivala je deklica zvezdo
                   D5
zvezdo rdečo kot kri
kot kri
in zraven si pela je pesem
     G5
pesem svobodnih je dni
je dni
šivala je deklica zvezdo
 D5
jo slišal je mlad partizan
cepec
ki se je boril za svobodo
G5
za delavsko kmečki je stan

   G5  D5  C5
e|-------------|
B|-------------|
G|-----7---5---|  prijemi akordov
D|-5---7---5---|
A|-5---5---3---|
E|-3-----------|

REFREN 1:

   C5               G5
šivala je deklica zvezdo
  C5               G5
zvezdo rdečo kot kri
  C5               G5
zraven si pela je pesem
 C5                  D5  C5  D5
pesem svobodnih je dni, je dni

   G5              F5    G#5       G5
e|-----------------------------------------------------------------|
B|-----------------------------------------------------------------|
G|-----------------------------------------------------------------|
D|-5-5-5-5-5-5-5-5-3-3-3-6-6-6-6-6-5-5-5-5-5-5-5-5-5-5-5-5-5-5-5-5-|
A|-5-5-5-5-5-5-5-5-3-3-3-6-6-6-6-6-5-5-5-5-5-5-5-5-5-5-5-5-5-5-5-5-|
E|-3-3-3-3-3-3-3-3-1-1-1-4-4-4-4-4-3-3-3-3-3-3-3-3-3-3-3-3-3-3-3-3-|

   G5              F5    G#5       G5              D5
e|-----------------------------------------------------------------|
B|-----------------------------------------------------------------|
G|-------------------------------------------------7-7-7-7-7-7-7-7-|
D|-5-5-5-5-5-5-5-5-3-3-3-6-6-6-6-6-5-5-5-5-5-5-5-5-7-7-7-7-7-7-7-7-|
A|-5-5-5-5-5-5-5-5-3-3-3-6-6-6-6-6-5-5-5-5-5-5-5-5-5-5-5-5-5-5-5-5-|
E|-3-3-3-3-3-3-3-3-1-1-1-4-4-4-4-4-3-3-3-3-3-3-3-3-----------------|

VERZ 2:

En, dva, tri, štir,... pet

G5

G5
šivala je deklica zvezdo
                   D5
zvezdo rdečo kot kri
kot kri
in zraven si pela je pesem
     G5
pesem svobodnih je dni
je dni
šivala je deklica zvezdo
 D5
jo slišal je mlad partizan
cepec
ki se je boril za svobodo
G5
za delavsko kmečki je stan

REFREN 2:

   C5               G5
šivala je deklica zvezdo
  C5               G5
zvezdo rdečo kot kri
  C5               G5
zraven si pela je pesem
 C5                  D5  C5  D5   G5
pesem svobodnih je dni, je dni

trzalica bartrzalica bar

Pesem je naložil

AliAs

Deli z drugimi

Vaš e-naslov ne bo objavljen. * označuje zahtevana polja