Kje imaš kitaro in trzalico? Besedilo in akordi so spodaj :-)

[[ DISCLAIMER ]]

Besedila in akordi na TrzaliciVse verzije te pesmi:    besedilo z akordi  Strah je odveč       Strah je odveč (tab)

trzalica bar

 ___________________________________________________________
|  _______________________________________________________  |
| |                                                       | |
| | IZVAJALEC: .............. Boštjan Narat               | |
| | PESEM: .................. Strah je odveč              | |
| | ALBUM: .................. Strah je odveč              | |
| | ZALOŽBA, LETO IZIDA: .... Založba Pivec, 2010         | |
| |_______________________________________________________| |
| |                                                       | |
| |          Transkripcija: George / april, 2015          | |
| |                                                       | |
| |            w w w . t r z a l i c a . c o m            | |
| |_______________________________________________________| |
|___________________________________________________________|
============================================================================================================
www.trzalica.com       www.trzalica.com       www.trzalica.com       www.trzalica.com       www.trzalica.com
============================================================================================================
Začetek:
   Dsus2
E|---{--------------}-|
H|---{-5------5-----}-|
G|---{-7------7-----}-|
D|---{---0------0---}-|
A|---{--------------}-|
D|-0-{-----0------0-}-|
         4x
Verz 1:
    Dsus2                        D/H         Csus2       D/H                     F#/A        Dsus2/E
E|---------------------------------------------------------------------------------2-----2-----0-----0---|
H|-----5-------5------5------5-----3-----3-----3-----3-----3-----3-----3-----3-----2-----2-----3-----3---|
G|-----7-------7------7------7-----2-----2-----0-----0-----2-----2-----2-----2---------------------------|
D|-------(0)------------0--------------------------------------------------------------------------------|
A|-------------------------------2---2-2---2-3---3-3---3-2---2-2---2-2---2-2---2-0---0-0---0-------------|
D|-(0)-----(0)----0-0------0---0-------------------------------------------------------------2---2-2---2-|
Verz 2:
   Dsus2                       D/H         Csus2       D/H                     F#/A        Dsus2/E
E|-------------------------------------------------------------------------------2-----2-----0-----0---|
H|---5------5------5------5------3-----3-----3-----3-----3-----3-----3-----3-----2-----2-----3-----3---|
G|---7------7------7------7------2-----2-----0-----0-----2-----2-----2-----2---------------------------|
D|-----------------------------------------------------------------------------------------------------|
A|-----------------------------2---2-2---2-3---3-3---3-2---2-2---2-2---2-2---2-0---0-0---0-------------|
D|-0----0-0----0-0----0-0----0-------------------------------------------------------------2---2-2---2-|
Verz 3:
   Dsus2                     D/H                      F#/A        Asus4        Dsus2/E  
E|------------------------------------------------------2-----2-----0-----0------------------------------|
H|-5------5------5------5------3-----3-----3-----3------2-----2-----3-----3------3-----3------3-----3----|
G|-7------7------7------7------2-----2-----2-----2-------------------------------0-----0------0-----0----|
D|-------------------------------------------------------------------------------------------------------|
A|---------------------------2---2-2---2-2---2-2---2--0---0-0---0-0---0-0---0----------------------------|
D|----0-0----0-0----0-0----0---------------------------------------------------2---2-2----2-2---2-2----2-|
Verz 4:
   Dsus2                     D/H                      F#/A        Asus4        Dsus2/E  
E|------------------------------------------------------2-----2-----0-----0------------------------------|
H|---5-----5------5-----5------3-----3-----3-----3------2-----2-----3-----3------3-----3------3-----3----|
G|---7-----7------7-----7------2-----2-----2-----2-------------------------------0-----0------0-----0----|
D|-------------------------------------------------------------------------------------------------------|
A|---------------------------2---2-2---2-2---2-2---2--0---0-0---0-0---0-0---0----------------------------|
D|-0---0-0----0-0---0-0----0---------------------------------------------------2---2-2----2-2---2-2----2-|
Prehod: 
   A                   harm.
E|---------------0------12--|
H|-----------0h2------------|
G|-------0h2----------------|
D|---0h2--------------------|
A|-0------------------------|
D|--------------------------|
     Zaporedje pesmi:
       - začetek 
       - verz 1
       - verz 2
       - začetek
       - verz 3
       - verz 4
       - prehod
       - verz 1
       - verz 2
       - začetek
       - verz 3
       - verz 4
       - prehod
       - verz 1
       - verz 2
       - začetek.
  Dsus2        D/H                  Csus2
  Dom je tam, kjer sem pred oknom izbral svojo lužo,
      D/H       F#/A           Dsus2/E
  v kateri znam vedno preveriti, če dežuje.
  Dsus2        D/H                   Csus2
  Dom je tvoj, vonj kadar sežeš prek mene po kavo,
  D/H         F#/A              Dsus2/E
  dom je tam, kjer sem še enkrat pozabil dežnik.
  Dsus2             D/H
  Vojna še traja, golobe odganjam z balkona,
    F#/A            Asus4        Dsus2/E
  v voznem redu dvigala iščem sistem.
  Dsus2          D/H
  Duce je mrtev, Grčija vztraja v plamenih,
  F#/A           Asus4              Dsus2/E    A
  TV prenosi prižgani so za vsak primer.
  Dom je tam, kjer sem pred oknom izbral svojo lužo,
  v kateri znam vedno preveriti, če dežuje.
  Dom je tvoj, vonj kadar sežeš prek mene po kavo,
  dom je tam, kjer sem še enkrat pozabil dežnik.
  Sama si v mestu, šla si zato, da prišla boš nazaj,
  svet lahko teče po svoje in jaz sem doma.
  Moje vojne je konec, sanje se pišejo na račune,
  sosed igra na trobento in strah je odveč.
  Dom je tam, kjer sem pred oknom izbral svojo lužo,
  v kateri znam vedno preveriti, če dežuje.
  Dom je tvoj, vonj kadar sežeš prek mene po kavo,
  dom je tam, kjer si še enkrat pustila dežnik.

trzalica bar

trzalica bar

Pesem je naložil

gpodkraj

Deli z drugimi

Vaš e-naslov ne bo objavljen. * označuje zahtevana polja